Versos Simples

Chimarruts

 Chimarrut's
Tom: G
		

                           G
E|-------------------------3-------------------3----------------
B|-------------------------3-----2--0----------2----------------
G|-------------------------0-----------------------4--2--2------
D|-------------2-4-2-0-----0------------------------------------
A|------5-4-2--------------0------------------------------------
E|-------------------------3-------------3--3-------------------


(Repete a Palhetada em Sol Maior e Toca a ultima nota Solta)


         G
E|-------3-------------------3---------------
B|-------3-----2--0----------2---------------
G|-------0----------------------4--2--0------
D|-------0-----------------------------------
A|-------0-----------------------------------
E|-------3-------------3--3------------------


G            C
Sabe já faz tempo,
        D
Que eu queria te falar
G                  C      D
Das coisas que trago no peito
G
Saudade,
         C                  D        G
Já não sei se é a palavra certa pra usar
               C        D
Ainda lembro do seu jeito

Refrão:
Bm                   Am
Não, te trago ouro
D                           Bm
Por que ele não entra no céu
                            C
E nenhuma riqueza deste mundo
Bm                 Am
Não te trago flores

D                             Bm
Por que elas secam e caem ao chão
                            C
Te trago os meus versos, simples
           D           G
Mas que fiz de coração

E|-------------------------
B|-------------------------
G|-------------------------
D|-------------2-4-2-0-----
A|------5-4-2--------------
E|-------------------------


G            C
Sabe já faz tempo,
        D
Que eu queria te falar
G                  C      D
Das coisas que trago no peito
G
Saudade,
         C                  D        G
Já não sei se é a palavra certa pra usar
               C        D
Ainda lembro do seu jeito

Refrão:
Bm                   Am
Não, te trago ouro
D                           Bm
Por que ele não entra no céu
                            C
E nenhuma riqueza deste mundo
Bm                 Am
Não te trago flores

D                             Bm
Por que elas secam e caem ao chão
                            C
Te trago os meus versos, simples
           D           G
Mas que fiz de coração

                           G
E|-------------------------3-----
B|-------------------------3-----
G|-------------------------0-----
D|-------------2-4-2-0-----0-----
A|------5-4-2--------------0-----
E|-------------------------3-----

Comentários 16

  • Maria Eduarda Maria Eduarda: Postado em 02/06/2014 18:24

    Consigui facil de +

  • meizlenny meizlenny: Postado em 23/09/2013 20:16

    Cara consequi tocar ela certinho sem ajustes nds fikou mtoo linda !!!!!!

  • leticia leticia: Postado em 06/05/2013 14:31

    no curso que eu faso de violaoa professora ensino de um jeito bem ,mais facile o ritimo que ela me ensino é baixo,baixo,cima,baixo,cima,baix

  • josevictorcbjrsopedirmusica josevictorcbjrsopedirmusica: Postado em 03/03/2013 20:52

    muito facil acordes de iniciants brithiney onde isso nao e simplificado

  • brithiney brithiney: Postado em 09/02/2013 14:48

    isso eh simplificado aonde?

    • Débora Débora: Postado em 15/02/2014 13:07

      Comentário removido

  • taina_shady taina_shady: Postado em 12/09/2012 13:39

    Alguem sabe o ritmo?????

    • Douglas Douglas: Postado em 29/10/2014 20:53

      baixo baixo cima cima baixo baixo cima baixo

  • matheuspadilha matheuspadilha: Postado em 09/09/2012 00:32

    Mt facil de tocar e de cantar!!! Meu tom deu certinho!!

  • mauro97 mauro97: Postado em 13/08/2012 18:09

    muita linda

Exibindo 10 de 16 comentários Mostrar mais ver todos »
Composição: Cassiane Silva / Richardson Maia
Esse não é o compositor? Avise-nos.
Contribuição: nAAAAAAAAAA Correções: 19kilowatts »
Exibir acordes »
publicidade
fechar