Chiquito e Bordoneio

Quem Sabe Amanhã

13.587 exibições
Tom: G
              G
Quem sabe amanhã
                  Am
Quando estiver distante
     C                   G
E ouvir no rádio esta canção
         Bm
Já não terás o meu amor
         Am
Do que vivemos vai lembrar
      F
Aí você vai repensar
         Am         D
E mergulhar na solidão

             Em          
Quem sabe amanhã
                Am
Quando a tarde chegar 
       C
Com saudade vai lembrar
            D
De quem um dia só te amou
   Bm                       Am      Cm
Às vezes me pergunto, o que te fez partir?
        G          D              C            D
Me segurei pra não ir, sofrer de novo eu não vou

              A
Quem sabe amanhã
         E
Quando você quiser voltar
           D
Pra o coração vou perguntar
          A                E
Se ainda existe o seu lugar

              F#m
Quem sabe amanhã
         D             A
Quando você se arrepender
                        E
E ninguém mais querer você
            D         A   E
Ainda eu possa te aceitar

     Fm      F#m       
Quem sabe amanhã
         D            A
Quando você quiser voltar
                        E
Pra o coração vou perguntar
         D        E      A
Se ainda existe o seu lugar


Solo Base: G D Em C Em Bm C D 
e|---------10-------------------------||
B|-10b(12)---10b(12)-10-8-10/12-10~---||
G|-0----------------------------------|| 
D|------------------------------------||
A|------------------------------------||
E|------------------------------------||


e|---------------------------------------------------------------||
B|-10/12-12-12-12-12-12-10-8-------------------------------------||
G|---------------------------9-7/9--9-9-9--7-7-7--5-5-5--4-2-2---|| 
D|---------------------------------------------------------------||
A|---------------------------------------------------------------||
E|---------------------------------------------------------------||


e|------------------------------------------------------------||
B|--------H---------------------------------------------------||
G|-5-4-(4-5-4)------------------H-----------H-----------------|| 
D|-------------7-5-7-5-5/7~--(4-5-4)---4-(4-5-4)---4-5-4------||
A|----------------------------------7-----------7-------------||
E|------------------------------------------------------------||


e|-------------------------------||
B|----------------------P--------||
G|-------5/7-7-7-7-7-(5-4-5)-----|| 
D|---4-5-------------------------||
A|-7-----------------------------||
E|-------------------------------||

                        H                  P

e|--------------------(8-10)--12-12-12-(12-10-8)-8~--------||
B|------------7-8-10---------------------------------------||
G|-5-5-5--7-9----------------------------------------------|| 
D|---------------------------------------------------------||
A|---------------------------------------------------------||
E|---------------------------------------------------------||


(Repete desde o início)

Final: D E                    A
             Quem sabe amanhã!

() = Ligados
 b = Bends

Obs: Escute a música e pegue bem os tempos!
    Composição: Ronildo A. Pontes (Canhoto)/Ronaldo Caldas/Marcio FávaColaboração e revisão:
    • Thiago Lima
    • D'Favery
    • Lan_guitar

    Comentários 0

    conseguiu tocar?

    • jonatan_correa

    covers

    Grave um vídeo tocando Quem Sabe Amanhã e mande pra gente!

    Ex.: http://www.youtube.com/watch?v=0IvSvIwGdwk
    ver covers de outras músicas »
    0:00 / 0:00

    Capítulos

      1 versão de violãodificuldadeexibiçõescontribuição e correção
      1 versão de guitarradificuldadeexibiçõescontribuição e correção
      1 versão de cavacodificuldadeexibiçõescontribuição e correção
      1 versão de tecladodificuldadeexibiçõescontribuição e correção
      play/pausefechar subir/descer velocidade
      6ª corda E5ª corda A4ª corda D3ª corda G2ª corda B1ª corda E
        acordes
        publicidad
        fechar
        ok