E Ai, Tempo?

Chitãozinho & Xororó

 Chitãozinho & Xororó Compositor: Caco Nogueira
Tom: G
		

E|--------------------------------------------------------------------------------------
B|-------------0p1----------------0p1------------------0p1---------------3--1--0--------
G|----------0------0-----------0------0-------------0-------0---------0-----------0-----
D|-------2------------------2--------------------2-----------------2-------------------
A|----3------------------3--------------------3-----------------3-----------------------
E|--------------------------------------------------------------------------------------

 Vai Fazendo o riff até "Nada mudou")

 Em                                  C
Meu calendário mostra que hoje é dia 26
                                     G
Meu relógio diz que agora são 15 pras 3 da manhã
                               D
É verdade, o tempo tá passando mas aqui nada mudou
  Em
Tudo tá igual quantos anos fazem
     C
Exatamente eu não sei
                         G
Tudo aconteceu tão de repente que eu só reparei
              D
Que lá fora antes tinha sol


E|-----------------------
B|-----------------------
G|-----5---4---0---------
D|-----------------0h2---
A|-----------------------

E|-----------------------

   Am                       Em
Como planejado, o tempo passou
                               C
Como já esperado, você não voltou

E o tempo que antes era meu amigo
       D
Agora já não joga ao meu favor

(Refrão)
 C      G
E aí tempo
                               D/F#
Não era você que ficou de resolver?
                                   Em
Não foi você que prometeu que ia curar?
                C            D/F#
Que iria me ajudar a esquecer?
        G
E aí, tempo?
                                D/F#
E tudo que me prometeu nada cumpriu
                                      Em
Me prometeu o sol mas só trouxe mais frio
                          C
Ah, seu pudesse voltar no tempo…


E|---------------------------------------------0--
B|--------------0p1--------------3--1--0-------1--
G|----------0--------0--------0-----------0----0--
D|-------2-----------------2-------------------2--
A|----3----------------3-----------------------3--
E|---------------------------------------------0--


 Em                                  C
Meu calendário mostra que hoje é dia 26
                                     G
Meu relógio diz que agora são 15 pras 3 da manhã
                               D                C
É verdade, o tempo tá passando mas aqui nada mudou


E|---3--2--0---------------------------
B|-----------0--3/5--------------------
G|-------------------------------------
D|-------------------------------------
A|-------------------------------------
E|-------------------------------------


  Em
Tudo tá igual quantos anos fazem
C
Exatamente eu não sei
                         G
Tudo aconteceu tão de repente que eu só reparei
              D
Que lá fora antes tinha sol


E|-----------------------
B|-----------------------
G|-----5---4---0---------
D|-----------------0h2---
A|-----------------------

E|

   Am                       Em
Como planejado, o tempo passou
                               C
Como já esperado, você não voltou

E o tempo que antes era meu amigo
       D
Agora já não joga ao meu favor

(Refrão)
 C      G
E aí tempo
                               D/F#
Não era você que ficou de resolver?
                                   Em
Não foi você que prometeu que ia curar?
                C            D/F#
Que iria me ajudar a esquecer?
        G
E aí, tempo?
                                D/F#
E tudo que me prometeu nada cumpriu
                                      Em
Me prometeu o sol mas só trouxe mais frio
                          C
Ah, seu pudesse voltar no tempo

 Base: G  D/F# Oooohhh  oohhh  C  Em  D/F#  G


E|------------------------------------------
B|--3--3--3--1--1--0----------------------------------
G|-------------------0--2-0-2------------------------
D|-----------------------------4--4--0--0--------
A|------------------------------------------
E|------------------------------------------


 C      G
E aí tempo
                               D/F#
Não era você que ficou de resolver?
                                   Em
Não foi você que prometeu que ia curar?
                C            D/F#
Que iria me ajudar a esquecer?
        G
E aí, tempo?
                                D/F#
E tudo que me prometeu nada cumpriu
                                      Em
Me prometeu o sol mas só trouxe mais frio
                          C
Ah, seu pudesse voltar no tempo...


E|-----------------------------------------------
B|--------------0p1--------------3--1--0---------
G|----------0--------0--------0-----------0------
D|-------2-----------------2---------------------
A|----3----------------3-------------------------
E|-----------------------------------------------
38.487 exibições

Comentários 4

  • victor235 victor235: Postado em 23/08/2013 23:52

    Aprenda a tocar e cante "E aí, tempo?": watch?v=vfvD8escYnQ

  • guilhermemanata guilhermemanata: Postado em 03/08/2013 19:01

    Essa musica é top

  • jefferson jefferson: Postado em 31/05/2013 14:55

    Galera se gostarem deixe seus comentários que postarei outras musicas... valeu

    • maironfast maironfast: Postado em 21/04/2014 12:53

      muito top eu aprendi rapidao

Composição: Caco Nogueira
Esse não é o compositor? Avise-nos.
Contribuição: Cabral Correções: shafer , jefferson e mais 3 »
Exibir acordes »
publicidade
fechar