E Ai, Tempo?

Chitãozinho & Xororó

 Chitãozinho & Xororó Compositor: Caco Nogueira
Tom: B(acordes na forma do tom G)
Capotraste na 4ª casa		

E|-----------------------------------------------|
B|-------------0p1p0--------------3p1p0----------|
G|----------0--------0---------0--------0--------|
D|-------0------------------0--------------------|
A|-----------------------------------------------|
E|----3------------------0-----------------------|

 Vai Fazendo o riff até "Nada mudou")

 Em                                  C
Meu calendário mostra que hoje é dia 26
                                     G
Meu relógio diz que agora são 15 pras 3 da manhã
                               D
É verdade, o tempo tá passando mas aqui nada mudou
  Em
Tudo tá igual quantos anos fazem
     C
Exatamente eu não sei
                         G
Tudo aconteceu tão de repente que eu só reparei
              D
Que lá fora antes tinha sol


E|-----------------------|
B|-----------------------|
G|-----5---4---0---------|
D|-----------------0h2---|
A|-----------------------|
E|-----------------------|


   Am                       Em
Como planejado, o tempo passou
                               C
Como já esperado, você não voltou

E o tempo que antes era meu amigo
       D
Agora já não joga ao meu favor

Refrão:

 C      G
E aí tempo
                               D/F#
Não era você que ficou de resolver?
                                   Em
Não foi você que prometeu que ia curar?
                C            D/F#
Que iria me ajudar a esquecer?
        G
E aí, tempo?
                                D/F#
E tudo que me prometeu nada cumpriu
                                      Em
Me prometeu o sol mas só trouxe mais frio
                          C
Ah, seu pudesse voltar no tempo…


E|---------------------------------------------0--|
B|--------------0p1--------------3--1--0-------1--|
G|----------0--------0--------0-----------0----0--|
D|-------2-----------------2-------------------2--|
A|----3----------------3-----------------------3--|
E|---------------------------------------------0--|


 Em                                  C
Meu calendário mostra que hoje é dia 26
                                     G
Meu relógio diz que agora são 15 pras 3 da manhã
                               D                C
É verdade, o tempo tá passando mas aqui nada mudou


E|---3--2--0---------------------------|
B|-----------0--3/5--------------------|
G|-------------------------------------|
D|-------------------------------------|
A|-------------------------------------|
E|-------------------------------------|


  Em
Tudo tá igual quantos anos fazem
C
Exatamente eu não sei
                         G
Tudo aconteceu tão de repente que eu só reparei
              D
Que lá fora antes tinha sol


E|-----------------------|
B|-----------------------|
G|-----5---4---0---------|
D|-----------------0h2---|
A|-----------------------|
E|-----------------------|


   Am                       Em
Como planejado, o tempo passou
                               C
Como já esperado, você não voltou

E o tempo que antes era meu amigo
       D
Agora já não joga ao meu favor

Refrão:

 C      G
E aí tempo
                               D/F#
Não era você que ficou de resolver?
                                   Em
Não foi você que prometeu que ia curar?
                C            D/F#
Que iria me ajudar a esquecer?
        G
E aí, tempo?
                                D/F#
E tudo que me prometeu nada cumpriu
                                      Em
Me prometeu o sol mas só trouxe mais frio
                          C
Ah, seu pudesse voltar no tempo

 Base: G  D/F# Oooohhh  oohhh  C  Em  D/F#  G


E|--------------------------2-2-------------|
B|--3--3--3--1--1--0-----0------3-3---------|
G|-------------------0p2--------------------|
D|------------------------------------------|
A|------------------------------------------|
E|------------------------------------------|


 C      G
E aí tempo
                               D/F#
Não era você que ficou de resolver?
                                   Em
Não foi você que prometeu que ia curar?
                C            D/F#
Que iria me ajudar a esquecer?
        G
E aí, tempo?
                                D/F#
E tudo que me prometeu nada cumpriu
                                      Em
Me prometeu o sol mas só trouxe mais frio
                          C
Ah, seu pudesse voltar no tempo...


E|-----------------------------------------------|
B|--------------0p1p0------------3p1p0-----------|
G|----------0---------0--------0-----------0-----|
D|-------0-----------------0---------------------|
A|-----------------------------------------------|
E|----3------------------0-----------------------|
41.178 exibições

Comentários 6

  • Oswaldo Oswaldo: Postado em 05/03/2015 19:44

    Enviei a correção para o cifraClub, acho que a correção que fiz está mais próxima da gravação.

  • Oswaldo Oswaldo: Postado em 05/03/2015 19:08

    A musica original está em si maior, então para usar esta forma usem o capo na 4 casa. Eu acabei tirando o solo sozinho e fez mais sentido...

  • victor235 victor235: Postado em 23/08/2013 23:52

    Aprenda a tocar e cante "E aí, tempo?": watch?v=vfvD8escYnQ

  • guilhermemanata guilhermemanata: Postado em 03/08/2013 19:01

    Essa musica é top

  • jefferson jefferson: Postado em 31/05/2013 14:55

    Galera se gostarem deixe seus comentários que postarei outras musicas... valeu

    • maironfast maironfast: Postado em 21/04/2014 12:53

      muito top eu aprendi rapidao

Composição: Caco Nogueira
Esse não é o compositor? Avise-nos.
Contribuição: Cabral Correções: Oswaldo , jefferson e mais 4 »
Exibir acordes »
publicidade
fechar