Tom: C
		
(intro)


D|--------------------|
A|--------3h5--3------|
E|--3h5---------------|



E|-----------------------------------------------|
B|-----------------------------------------------|
G|-----------------------------------------------|
D|--5--7-7/8--7--5-------------------------------|
A|------------------------3h5--3-----------------|
E|-----------------3h5---------------------------|



E|-8-7-5-7-5---5----------------------------------------------------------|
B|-----------8---8-6-8-6-5-6-5---5----------------------------------------|
G|-----------------------------7---7-5-7-5-5-5-5-5-5-5-5-5-5-5-5...-------|
D|------------------------------------------------------------------------|
A|------------------------------------------------------------------------|
E|------------------------------------------------------------------------|



E|-----------------------------------------------|
B|-----------------------------------------------|
G|-----------------------------------------------|
D|--5--7--7/8--7--5------------------------------|
A|-----------------------3h5--3------------------|
E|-----------------3h5---------------------------|


(riff 1)

E|-----------------------------------------------|
B|-----------------------------------------------|
G|-----------------------------------------------|
D|--5--7--7/8--7--5------------------------------|
A|-----------------------------------------------|
E|-----------------------------------------------|


(riff 2)

E|-----------------------------------------------------|
B|-----------------------------------------------------|
G|-----------------------------------------------------|
D|-----------------------------------------------------|
A|--5--7--8-8/10--8-7-5---3--2--0----------------------|
E|--------------------------------3--1--0--0--1--3-----|


(riff 3)

E|-8-7-5-7-5---5--------------------------|
B|-----------8---8-6-8-6-5-6/7--6--5------|
G|-----------------------------------7----|
D|----------------------------------------|
A|----------------------------------------|
E|----------------------------------------|


(riff 4)

E|-----------------------------------------------|
B|-----------------------------------------------|
G|-----------------------------------------------|
D|--5--7--7/8------------------------------------|
A|-----------------------3h5--3------------------|
E|-----------------3h5---------------------------|


C                    G         Dm          F  (riff 1)
Quanto tempo o coração, leva pra saber
C                     G         Dm      F ( riff 1)
Que o sinônimo de amar, é sofrer
C                G                Dm        F (riff 1)
Num aroma de amores, pode haver espinhos
C                     G                 Dm        F (riff 2)
É como ter mulheres em milhões, e ser sozinho

G                Dm           G      F (riff 3)
Na solidão de casa, descansar
G               Dm           C
O sentido da vida, encontrar
G                            Dm              F (riff 4)
Quem pode dizer onde a felicidade, esta. . .

     C                       G                      Dm (riff 1)
     O amor é feito de paixões e quando perde a razão
       F         G              C
     Não sabe quem vai machucar
                         G                      Dm
     Quem ama nunca sente medo de contar o seu segredo
         F          G          C
     Sinônimo de amor é amar

G                     D         Am           C
  Quem revelará o mistério, que tenha fé
G                     D                        Am     C
  E quantos segredos traz, o coração de uma mulher
G                     D                     Am         C
  Como é triste a tristeza, mendigando um sorriso
G                       D                       Am      C
  Um cego procurando a luz, na imensidão do paraiso

D                  Am        D       C
  Quem tem amor na vida, tem sorte
D                Am                 G
  Tem a fraqueza sabe, ser bem mais forte
D                                 Am             C
  Ninguém sabe dizer onde a felicidade, está. . .

(refrão 2x)
G                       D                      Am
O amor é feito de paixões e quando perde a razão
    C          D       G
Não sabe quem vai machucar
                    D                      Am
Quem ama nunca sente medo de contar o seu segredo
   C          D         G
Sinônimo de amor é amar

(solo) G  D  Am  C  G  Dm  F  G

C                     G         Dm          F
  Quem revelará o mistério, que tenha fé
C                     G                        Dm     F
  E quantos segredos traz, o coração de uma mulher
C                     G                     Dm       F
  Como é triste a tristeza, mendigando um sorriso
C                       G                       Dm     F
  Um cego procurando a luz, na imensidão do paraízo

(refrão 2x)
C                       G                      Dm
O amor é feito de paixões e quando perde a razão
 F         G              C
Não sabe quem vai machucar
                   G                      Dm
Quem ama nunca sente medo de contar o seu segredo
    F          G          C
Sinônimo de amor é amar

Comentários 0

Composição: Augusto / Claudio Noam / Paulo Sérgio
Esse não é o compositor? Avise-nos.
Contribuição: Régis Correções: jesse benedito e mais 2 »
Exibir acordes »
publicidade
fechar