Introdução e parte cantada por Chitãozinho & Xororó
|-----------------------------------------------------------|
|-------------------0--0-2-3-2-0----------------------------|
|-----3+5-3-3--2-2------------------------------------------|
|-3+5-------------------------------------------------------| Refrão e Riff


|-----------------------------------------------------------|
|-5-3-2-----------------------------------------------------|
|-------5-3-2------------------------3-3-2-2-0--0-2-3-2-0---|
|-------------5--1-1--3-3--1-1--3-3-------------------------| Arranjo


Parte cantada por Zé Ramalho
|-----------------------------------------------------------|
|-----------------------------------------------------------|
|-----5+7-5-5--4-4-5--7-9-10-9-7----------------------------|
|-5+7-------------------------------------------------------| Refrão e Riff


|-7-5-4-----------------------------------------------------|
|-------7-5-4------------------------5-5--4-4-5--7-9-10-9-7-|
|-------------7--3-3--5-5--3-3--5-5-------------------------|
|-----------------------------------------------------------| Arranjo


(+) Hamer

_______________________________________________________
Contribuição: Pedro(pedrao_p_h@hotmail.com)

Comentários 0

Composição: Augusto / Claudio Noam / Paulo Sérgio
Esse não é o compositor? Avise-nos.
Consegui tocarAinda não conseguiram tocar essa música. Seja o primeiro!
    Não consegui tocar
    publicidade
    fechar