Tua É a Glória

Chris Durán

 Chris Durán
Tom: F
		
(intro)


E |----------------------------------------
B |--5h6-6-5-6-6/8-6-6-5-6-6/8------
G |----------------------------------5----
D |----------------------------------------
A |----------------------------------------
E |-----------------------------------------



E |--------------------------------------------------------------------------------
B |--5h6-6-5-6-6/8-6-6-5-6-6/8------------6-6-5----------------------------
G |----------------------------------5----5-7----------7-5---5h7p5------------
D |--------------------------------------------------------------------------------
A |--------------------------------------------------------------------------------
E |--------------------------------------------------------------------------------


F             Dm7                 Bb9
Tua é a glória e o poder,
                   Bb9/C
Tu és pra sempre Rei
F                          Dm7
Honra e majestade estão
  Bb9                C      C7/C#
DianTe do Senhor
      Dm7/C                   Dm7/C#
Não exisTe nenhum Deus
                  Dm7/C             G/B
Que seja, digno como Tu
           Gm7              F/A
Nada vai me separar de Ti
      Bb9   Bb9/C                    C/E
Tu és a própria vida em mim

F
Não deixarei Te louvar
Dm7
Não deixarei de Te buscar
       Bb9          F/A
És a razão da minha vida
 Gm7            C
Vivo pra Te exaltar
F
Não deixarei Te louvar
Dm7
Não deixarei de Te buscar
              Bb9                     F/A
És a razão da minha vida
 Gm7                      C
Vivo pra Te adorar

(solo)

G
Não deixarei Te louvar
Em7
Não deixarei de Te buscar
              C9                      G/B
És a razão da minha vida
 Am7                        D
Vivo pra Te exaltar
G
Não deixarei Te louvar
Em7
Não deixarei de Te buscar
              C9                      G/B
És a razão da minha vida
 Am7                      D       G
Vivo pra Te adorar (Jesus)
34.599 exibições

Comentários 1

  • marquinhos marquinhos: Postado em 16/02/2013 09:16

    louvor abençoado.

Composição: Sabe quem é o compositor? Envie pra gente. Contribuição: Correções: Vanessa »
Consegui tocarAinda não conseguiram tocar essa música. Seja o primeiro!
    Não consegui tocar
    Exibir acordes »
    publicidade
    fechar