New York

Chrystian & Ralf

 Chrystian & Ralf
Tom: C
		
Intro: C  Dm


E|--8-8-8-8-8-8-8--7-5-----------------------------------------|
B|----------------------8-7-5---------5-6--------5-6-5---------|
G|-----------------------------7-7---------7-7----------7-5----|
D|-------------------------------------------------------------|
A|-------------------------------------------------------------|
E|-------------------------------------------------------------|



E|--8-8-8-8-8-8-8--7-5-----------------------------------------|
B|----------------------8-7-5---------5-6--------5-6-5---------|
G|-----------------------------7-7---------7-7----------7-5----|
D|-------------------------------------------------------------|
A|-------------------------------------------------------------|
E|-------------------------------------------------------------|



E|-----------------------------------------------|
B|--------6-5-----6-7----------------------------|
G|------------7-------7-5------------------------|
D|-----------------------------------------------|
A|-----------------------------------------------|
E|-----------------------------------------------|


Dm          F             C
essa é a história de um novo herói.
Dm             F         C
cabelos compridos a rolar no vento.
Dm          F          C
pela estrada no seu caminhão.
Dm           F                C
cravado no peito a sombra de um dragão.

F                      C
tinha um sonho ir pra nova york,
C
levar a namorada.
F                  C
fazer seu caminhão voar nas nuvens.
F                C
mas enquanto isso na estrada.

         Dm
Saudade vai, vai, vai.
        F
Saudade vem, vem, vem...
      C
Te buscar...

(Intro)

(repete tudo)

(Intro)

Comentários 5

  • Cristian Cristian: Postado em 10/11/2014 10:19

    toco em DO pra pegar o F ms tem toda a dinâmica da musica .... depois se vc nao saber fazer a voz nao adianta tocar no tom certo

  • ederlucas.cavazoni ederlucas.cavazoni: Postado em 22/09/2014 14:00

    Não acho, para eu fica bom em A, cada um tem que tocar de acordo com a voz não é a penas tocar em C OU G OU E, tem que encaixar a voz

  • djordao djordao: Postado em 07/11/2012 21:00

    Mais ela ai está em dó.

  • welingtonnlima welingtonnlima: Postado em 08/02/2012 13:06

    fik ñ pow assim eh melhor :D

  • schlosserdick schlosserdick: Postado em 05/10/2011 19:36

    tokem ela em dó
    fica bem melhor e é a original em dó

Composição: Sabe quem é o compositor? Envie pra gente. Contribuição: matheus_guita Correções: Arthur , murruga e mais 9 »
Exibir acordes »
publicidade
fechar