A Thousand Years

Christina Perri

 Christina Perri
Tom: A#(acordes na forma do tom G)
Capotraste na 3ª casa		
Intro:


    G5
E|3--------3--------3---------2p0----------|
B|----3--------3---------3----------3------|
G|--0---0----0---0-----0---0------0---0----|
D|-----------------------------------------|
A|-----------------------------------------|
E|3--------3--------3---------3------------|


    Em
E|0--------0----------------0--------------|
B|----0---------0-------------0------0-----|
G|------0---------0-------0--------0---0---|
D|--2---------2------2/4---------5---------|
A|-----------------------------------------|
E|0--------0-------------------------------|


    C                  C9(4+)  C9
E|---------0---------2-------3-------------|
B|1-------------1--------1-------1---------|
G|----0-------0---0----0---0---0---0-------|
D|--2---2----------------------------------|
A|3--------3---------3-------3-------------|
E|-----------------------------------------|


    D4                  D
E|4--------4----------2--------------------|
B|----3--------3------3--------------------|
G|--2---2----2---2----2--------------------|
D|0--------0----------0--------------------|
A|-----------------------------------------|
E|-----------------------------------------|


 C9
Heart beats fast
             G/B
Colors and promises
            Am7
How to be brave
           D/F#     G5      C9
How can I love when I'm afraid to fall
                   G/B
But watching you stand alone
           Em7            D/F#  G5    Am7
All of my doubt suddenly goes away somehow

           Em      D9/F#
One step clo______ser

G5                            D9/F#
I have died everyday waiting for you
 Em                             D9/F#
Darling don't be afraid I have loved you

        C  C9(4+)    C9
For a thousand years
                      D4      D
I'll love you for a thousand more

 C9
Time stands still
          G/B
Beauty in all she is
            Am7
I will be brave
            D9/F#   G5   C9
I will not let anything take away
                     G/B
What's standing in front of me
        Em7
Every breath
       D9/F#         G5  Am7
Every hour has come to this
           Em      D9/F#
One step clo______ser

Refrão:

G5                            D9/F#
I have died everyday waiting for you
 Em                             D9/F#
Darling don't be afraid I have loved you

        C  C9(4+)    C9
For a thousand years
                      D4      D
I'll love you for a thousand more

    G5                            D9/F#
And all along I believed I would find you
 Em
Time has brought your heart to me
        D9/F#            C  C9(4+)    C9
I have loved you for a thousand years
                      D4     D
I love you for a thousand more

( G5  Em  C  D4  D )

Am7            Em      D9/F#
    One step clo______ser

Am7            Em      D9/F#
    One step clo______ser

G5                            D9/F#
I have died everyday waiting for you
 Em                             D9/F#
Darling don't be afraid I have loved you

        C  C9(4+)    C9
For a thousand years
                      D4      D
I'll love you for a thousand more

    G5                            D9/F#
And all along I believed I would find you
 Em
Time has brought your heart to me
        D9/F#            C  C9(4+)    C9
I have loved you for a thousand years
                      D4     D
I love you for a thousand more

Primeira parte:


    C9
E|-----------------------------------------|
B|-----3------------3------------3---------|
G|-0-------0----0-------0----0-------0-----|
D|---2---2--------2---2--------2---2-------|
A|3-----------3------------3---------------|
E|-----------------------------------------|


    C9           G/B
E|-----------------------------------------|
B|------3------------3------------3--------|
G|--0-------0----0-------0----0-------0----|
D|----2---2--------0---0--------0---0------|
A|3------------2------------2--------------|
E|-----------------------------------------|


    G/B                       Am7
E|-----------------------------------------|
B|------3------------3------------3--------|
G|--0-------0----0-------0----0-------0----|
D|----0---0--------0---0--------2---2------|
A|2------------2---------------------------|
E|--------------------------0--------------|


    Em7         D/F#          G5
E|-----------------------------------------|
B|------3------------3------------3--------|
G|--0-------0----2-------2----0-------0----|
D|----2---2--------0---0--------0---0------|
A|-----------------------------------------|
E|0------------2------------3--------------|

Comentários 91

  • Simon Simon: Postado em 10/01/2015 20:46

    Eu ki sou mt burro ou essa cifra ta td ... "desorganizada"? -_-

  • lara.cowgirl lara.cowgirl: Postado em 02/01/2015 22:51

    sapoha tá toda errada, tanto as notas como a letra, vamos avaliar de novo que não tá batendo com a música original e voltar pra outra versão

  • pessoua pessoua: Postado em 30/12/2014 16:13

    Essa nova tá difícil, prefiro a minha antiga ;)

  • Rafa Rafa: Postado em 28/11/2014 18:51

    Versão antiga tava melhor...cheio de erros essa nova

  • elismara elismara: Postado em 28/11/2014 13:27

    A versão antiga tava melhor

  • elvisssssssss elvisssssssss: Postado em 19/08/2014 02:11

    muito linda e facio essa musica , com notas simplificadas , perfeita *-*

  • Gleiner Gleiner: Postado em 15/07/2014 19:26

    Tem que mudar o Am7 por Em7 em algumas partes aí. Erraram trocando os acordes.

    • camillysilva camillysilva: Postado em 18/07/2014 11:59

      Pois é... me compliquei um pouco por causa disso ;)

    • RUY RUY: Postado em 29/08/2014 16:36

      Comentário removido

  • Vicdofunk Vicdofunk: Postado em 07/07/2014 21:23

    A Thousand Years
    Christina Perri
    Leo Eymard toque essa música por favor!!

Exibindo 10 de 91 comentários Mostrar mais ver todos »
Composição: David Hodges / Samantha Crain
Esse não é o compositor? Avise-nos.
Contribuição: fernandinhasrs Correções: wallace , larissa e mais 4 »
Exibir acordes »
publicidade
fechar