Um Dia

Cidadão Quem

 Cidadão Quem
Tom: C
		
Intro:

      Am  C      D        G     Am
E|---------------------------------------|
B|-8/10-8-8/10---------------------------|
G|-------------7-5-----------------------|
D|-----------------7----5-5/7------------|
A|----------------------------5-3--------|
E|--------------------------------5------|


          C      D          Dm      Am
E|---------------------------------------|
B|------8-8/10---------------------------|
G|-------------7-5--------7/9-7-5--------|
D|-----------------7----7---------7------|
A|---------------------------------------|
E|---------------------------------------|


Am    D/F#        G9          Em
Ando sozinho pelas ruas nas esquinas de qualquer lugar
Am    D/F#               G9         Em
Vejo um menino Um velho pássaro Que não se cansa de voar
Am            D/F#        G9            Em
Ares de uma mulher. Corpo que seduz Me leva um pouco para lá
Am            D/F#        G9
Paro e vejo uma luz Pode ser o sol
  Em           F
E nada poderá mudar

Refrão:
          C     Am
Te peço pra lembrar
           F       G
Que o dia nasce e acaba
            C       Am
Responda a quem chamar
           F          E7
Com seu abraço e mais nada

Am     D/F#          G9
Sigo o destino Que a vida me traz
  Em
Do jeito que ele me conduz
Am       D/F#          G9
Tantas maneiras Formas visuais
   Em
Amores e os seus finais
Am       D/F#       G9
E chegando ao final durmo e sonho em paz
 Em
com os pássaros no céu lilás
 Am          D/F#          G9
Folhas caem do céu no planeta azul
  Em         F
E nada poderá mudar

(Refrão)
86.368 exibições

Comentários 2

Composição: Sabe quem é o compositor? Envie pra gente. Contribuição: Gio Correções: douglas de leon , JoNaS Mantovani e mais 2 »
Exibir acordes »
publicidade
fechar