Lá Fora

Código B

 Código B
Tom: C
		

 Bm                           G            Em
|-------------------------------------------------------|
|-------------------------------------------------------|
|-9--7--6--7--4>9--7--6--7--4>9--7--6--7--4>11--9--14~--|
|-------------------------------------------------------| (2x)
|-7--5--4--5--2>7--5--4--5--2>7--5--4--5--2>9---7--12~--|
|-------------------------------------------------------|


Bm
Tudo é tão incerto, tento não errar
G                         Em
Mas quando o erro é certo, não dá pra evitar
Bm
Nada é como antes, não tenho o meu lugar
G                       Em            
E tenho poucas chances pra desperdiçar


 Bm                           G            Em
|-------------------------------------------------------|
|-------------------------------------------------------|
|-9--7--6--7--4>9--7--6--7--4>9--7--6--7--4>11--9--14~--|
|-------------------------------------------------------| (2x)
|-7--5--4--5--2>7--5--4--5--2>7--5--4--5--2>9---7--12~--|
|-------------------------------------------------------|


Bm
Quando me arrependo, penso em voltar atrás
G                      Em
Mas cada vez que viro, olho e não vejo mais
Bm
Mesmo assim eu sigo, sigo o meu coração
G             Em
Ainda acredito, mas com os pés no chão

C        G    Am        Em
Quem não vê o mundo lá fora
C      G    Am      Em
Pode até não se assustar
C       G     Am       Em
Mas pra ter a minha estória
C      G   Am     Em        (Em     C)
Tenho que me arriscar
5.404 exibições

Comentários 0

Composição: Rique Azevedo/Liah
Esse não é o compositor? Avise-nos.
Contribuição: Rafa Martins
Consegui tocarAinda não conseguiram tocar essa música. Seja o primeiro!
    Não consegui tocar
    Exibir acordes »
    publicidade
    fechar