Eu Amo a Tua Casa

Comunidade Evangélica Internacional da Zona Sul

Sem foto do Comunidade Evangélica Internacional da Zona Sul Compositor: Comunidade Evangelica Internacional da Zona Sul
Tom: E
		

E ||--------------------------------------------------------------||
A ||--------------------------------------------------------------||
D ||--------------------------------------------------------------||
G ||-------------------9-9-9--8-8-8-8-8-8--6-6-6-6-6-6------------||
B ||-7-7-7-7-7-7-7-7-7--------------------------------------------||
e ||--------------------------------------------------------------||



Intro: B

B
 O pardal encontrou casa
                          E
 E a andorinha ninho para si
           B            F#
 Eu encontrei os teus altares
  B
 Um só dia nos teus átrios vale mais que mil
  E              B
 Pois na tua presença
         F#
 Há plenitude de alegria

  G#m       E         B          F#
 Uma coisa peço a Deus e a buscarei
  G#m            E                 F#
 Que eu possa morar na casa do Senhor

        B         F#
 Porque eu amo a tua casa
  G#m         D#m         E         B
 Vou me oferecer pra tua causa, oh Deus!
          F#
 Enquanto eu viver
        B         F#
 Porque eu amo a tua casa
  G#m     D#m             E   G#m  F#     B
 Permanecerei plantado e frutificarei pra ti

Solo: G#m  E  B  F#


E ||-------------------------------------------------------------------------------------------||
A ||-------------------------------------------------------------------------------------------||
D ||-12h14-12--12h14-12~-----------------------------------------------------------------------||
G ||------------------------14h16-14---12h14-12~-----------------------------------------------||
B ||-----------------------------------------------19h21-21--19h21-21~-------------------------||
e ||--------------------------------------------------------------------21b-22r21--19h21-19~~--||


G#m     E      B               F#
 Refugio seguro, lugar de proteção
G#m      E       B                F#
 Banquete na mesa, lugar de provisão
G#m    E        B                F#
 Amigos, família, lugar de comunhão
G#m   E         B                F#
 Altar de glória, lugar de adoração
16.960 exibições

Comentários 2

  • mick91 mick91: Postado em 04/09/2013 08:50

    cade a introdução?

  • basscover basscover: Postado em 01/03/2012 14:27

    O clipe da música ta errado... mas a letra certinha...

Composição: Joseph Rossi / Mozella McDonald
Esse não é o compositor? Avise-nos.
Contribuição: Andre Correções: bie.el »
Exibir acordes »
publicidade
fechar