Tom: C
		
C9                       G/C
Cria  em  mim  ó  Deus,  cria  em  mim  ó  Deus
               F9  Fm9
Um  coração  puro
C9               G/C
E  renova,  e  renova
               F9
Um  espírito  inabalável

Dm            F/G           C
Não retires de nós o teu  espírito
Dm            F/G           C      G/B
Não retires de nós o teu  espírito
Am7                          Em
Quero  aprender  com  meus  erros
F                C9      G/B
E  não  mais  cometê-los
Am7                           Em
Sei  que  não  vai  ser  tão  fácil
        F
Mas,  difícil  é  continuar  no  erro
    Dm7
E  viver  no  mesmo  desespero
                  G
E  ficar  para  trás
C9                 Em
Eu  quero  se...eer
                 Am7
Eu  quero  se...eer
     Dm7
Um  homem  segundo
      F              C
O  coração  de  Deus    (2x)

E|-----------------------------------------------------------------|
B|-----------------------------------------------------------------|
G|------12-------12-10-9-10-9----10-9----------12-------12-10-9-10-|
D|---10-------10---------------10-----10----10-------10------------|
A|-10------10----------------------------10-------10---------------|
E|-----------------------------------------------------------------|



E|--------------|
B|--------------|
G|-9----10-9-17-|
D|---10---------|
A|--------------|
G|--------------|



E|----------------------------------------|
B|-------------------------------------13-|
G|-------12-------12-10-9-10-9----10-9----|
D|----10-------10--------------10---------|
A|-10-------10----------------------------|
E|----------------------------------------|

Comentários 1

  • Wanderson Wanderson: Postado em 05/03/2013 11:01

    muito lindo esse hino

Composição: Sabe quem é o compositor? Envie pra gente. Contribuição: Richard Correções: risperino , mario2018 e mais 10 »
Exibir acordes »
publicidade
fechar