Eu Quero é Deus

Comunidade de Nilópolis

 Comunidade de Nilópolis
INTRODUÇÃO
G:--------------------------------------------
D:----5-3------------------------------------- 2X
A:-------22-3-5-------------------------------
E:--3-----------------------------------------

G:----5-3-------------------------------------
D:--------22-3-5------------------------------ 2X
A:--3-----------------------------------------
E:--------------------------------------------

1PARTE
G:--------------------------------------------
D:--------------------------------------------
A:--------------------------------------------
E:---555555555--------------------------------


_______________________________________________________
Contribuição: UILIANSMAR BABOSA CAMPOS(UILIAN)

Comentários 0

Consegui tocarAinda não conseguiram tocar essa música. Seja o primeiro!
    Não consegui tocar
    publicidade
    fechar