O Culto Hoje Vai Ser Maravilhoso

Corinhos Evangélicos

 Corinhos Evangélicos Compositor: Desconhecido
Tom: D
		

E|----------------------------------------------------------------------------------
B|----------------------------------------------------------------------------------
G|---------------------------------------4------------------4-----------------------
D|-------------4---5--------5---7---------7---5---7--------5------------------------
A|--5----7--------------------------------------------------------------------------
E|----------------------------------------------------------------------------------



E|----------------------------------------------------------------------------------
B|----------------------------------------------------------------------------------
G|----4---4--4-----------------4----------------------------------------------------
D|----------------7--7--7-7-------7---5---4---5-------------------------------------
A|----------------------------------------------------------------------------------
E|----------------------------------------------------------------------------------
41.248 exibições

Comentários 0

Exibir acordes »
publicidade
fechar