Um Minuto Para o Fim do Mundo

CPM 22

 CPM 22
(intro)

G|-9-9-9-9-9-9-9-9---9--9--9--9--9--9--9--9---------|
D|-7-7-7-7-7-7-7-7---10-10-10-10-10-10-10-10--------|

G|-7-7-7-7-7-7-7-7---5-5-5-5-5-5-5-5----------------|
D|-5-5-5-5-5-5-5-5---3-3-3-3-3-3-3-3----------------|

(verso 3x) Entra junto com a batera. . .
G|--------------------------------------------------|
D|--------------------------------------------------|
A|-0-0-0-0-0-0-0-0----------------------------------|
E|-----------------1-1-1-1-1-1-1-1------------------|

G|--------------------------------------------------|
D|--------------------------------------------------|
A|-3-3-3-3-3-3-3-3----------------------------------|
E|-----------------3-3-3-3-3-3-3-3------------------|

G|--------------------------------------------------|
D|--------------------------------------------------|
A|-3-3-3-3-3-3-3-3----------------------------------|
E|-----------------3-3-3-3-3-3-3-3------------------|

G|--------------------------------------------------|
D|--------------------------------------------------|
A|-3-3-3-3-3-3-3-3----------------------------------|
E|-----------------3-3-3-3/15-15-15-----------------|

G|-------------------------------------------------------------|
D|-------------------------------------------------------------|
A|-3-3-3-3-3-3-3-3---------------------------------------------|
E|-----------------3-3-3-3-3-3-3-3-1-1-1-1-1-1-1-3-3-3-3-3-3-3-|

entre essa parte^ e o solo a um tempo sem tocar de 4 compasos ou 16 batidas

(solo base 2x) Ela serve tanto pro solo do começo quanto o do fim . . .
G|--------------------------------------------------|
D|--------------------------------------------------|
A|-3-3-3-3-3-3-3-3----------------------------------|
E|-----------------3-3-3-3-3-3-3-3------------------|

G|--------------------------------------------------|
D|--------------------------------------------------|
A|--------------------------------------------------|
E|--5-5-5-5-5-5-5-5-1-1-1-1-1-1-1-1-----------------|

(verso 1x)
(refrão 1x)
G|--------------------------------------------------|
D|--------------------------------------------------|
A|-3-3-3-3-3-3-3-3----------------------------------|
E|-----------------3-3-3-3-1-1-1-1------------------|

G|--------------------------------------------------|
D|--------------------------------------------------|
A|-3-3-3-3-3-3-3-3----------------------------------|
E|-----------------3-3-3-3/15-15-15-----------------|

G|-------------------------------------------------------------|
D|-------------------------------------------------------------|
A|-3-3-3-3-3-3-3-3---------------------------------------------|
E|-----------------3-3-3-3-3-3-3-3-1-1-1-1-1-1-1-3-3-3-3-3-3-3-|

(solo base 2x)
(verso 4x)
(refrão 2x)
(solo 2x)

Essa é a parte do "Eu sei que isso é o fim... Eu sei que isso é o fim... Eu sei que isso é o fim do mundo"
G|------------------------------------------------------------|
D|------------------------------------------------------------|
A|---------------------------------------------------------3--|
E|-1-1-1-1-1-1-1-1-1-1-1-1-1-1-1-1-1-1-1-1-1-1-1-1-1-1-1------|

ali no Fá Fá Fá Fá Fá(1-1-1-1-1-1-1) 
não esta na comtidade exata de notas tocasdas na musica mais vai tocando 
um  monte de Fá Fá Fá Fá até o final que acaba com Dó (corda A casa 3)
que vai soando até para de soar a nota

Comentários (0)

Composição: Wally / Rodrigo Koala
Esse não é o compositor? Avise-nos.
Contribuição: ryu Correções: Loco Abreu e mais 2 »
  1. Tudo Que Você Quiser - Luan Santana Manteve-se 6.122 exibições
  2. Lepo Lepo - Psirico Manteve-se 4.394 exibições
  3. Mozão - Lucas Lucco Manteve-se 4.201 exibições
  4. Logo Eu - Jorge e Mateus Manteve-se 4.020 exibições
  5. Pra Você - Onze:20 Manteve-se 4.019 exibições
  6. Gaveta - Fernando e Sorocaba Manteve-se 3.769 exibições
  7. Só Os Loucos Sabem - Charlie Brown Jr. Manteve-se 3.071 exibições
  8. Tempo Perdido - Legião Urbana Manteve-se 2.714 exibições
  9. Fui Fiel - Gusttavo Lima Manteve-se 2.713 exibições
  10. Domingo de Manha - Marcos e Belutti Manteve-se 2.289 exibições
  1. Jorge e Mateus- Manteve-se 23.884 exibições
  2. Legião Urbana- Manteve-se 21.696 exibições
  3. Luan Santana- Manteve-se 17.411 exibições
  4. Charlie Brown Jr.- Manteve-se 17.352 exibições
  5. Fernandinho- Manteve-se 14.841 exibições
  6. Católicas- Manteve-se 11.201 exibições
  7. Thalles Roberto- Manteve-se 11.085 exibições
  8. Gusttavo Lima- Manteve-se 11.009 exibições
  9. Victor e Leo- Manteve-se 10.721 exibições
  10. Bruno e Marrone- Manteve-se 10.310 exibições

Cifras e tabs

Fórum Cifra Club

Aprenda

Cifra Club News

Mais Serviços Cifra Club ID

Studio Sol

©1996 - 2014 Cifra Club · o primeiro, maior e mais acessado do Brasil · 329 mil músicas · 6.0 milhões pessoas cadastradas

publicidade
fechar