Um Minuto Para o Fim do Mundo

CPM 22

 CPM 22
(intro)

G|-9-9-9-9-9-9-9-9---12-12-12-12-12-12-12-12--------|
D|-7-7-7-7-7-7-7-7---10-10-10-10-10-10-10-10--------|

G|-7-7-7-7-7-7-7-7---5-5-5-5-5-5-5-5----------------|
D|-5-5-5-5-5-5-5-5---3-3-3-3-3-3-3-3----------------|

(verso 3x) Entra junto com a batera. . .
G|--------------------------------------------------|
D|--------------------------------------------------|
A|-0-0-0-0-0-0-0-0----------------------------------|
E|-----------------1-1-1-1-1-1-1-1------------------|

G|--------------------------------------------------|
D|--------------------------------------------------|
A|-3-3-3-3-3-3-3-3----------------------------------|
E|-----------------3-3-3-3-3-3-3-3------------------|

G|--------------------------------------------------|
D|--------------------------------------------------|
A|-3-3-3-3-3-3-3-3----------------------------------|
E|-----------------3-3-3-3-3-3-3-3------------------|

G|--------------------------------------------------|
D|--------------------------------------------------|
A|-3-3-3-3-3-3-3-3----------------------------------|
E|-----------------3-3-3-3/15-15-15-----------------|

G|-------------------------------------------------------------|
D|-------------------------------------------------------------|
A|-3-3-3-3-3-3-3-3---------------------------------------------|
E|-----------------3-3-3-3-3-3-3-3-1-1-1-1-1-1-1-3-3-3-3-3-3-3-|

entre essa parte^ e o solo a um tempo sem tocar de 4 compasos ou 16 batidas

(solo base 2x) Ela serve tanto pro solo do começo quanto o do fim . . .
G|--------------------------------------------------|
D|--------------------------------------------------|
A|-3-3-3-3-3-3-3-3----------------------------------|
E|-----------------3-3-3-3-3-3-3-3------------------|

G|--------------------------------------------------|
D|--------------------------------------------------|
A|--------------------------------------------------|
E|--5-5-5-5-5-5-5-5-1-1-1-1-1-1-1-1-----------------|

(verso 1x)
(refrão 1x)
G|--------------------------------------------------|
D|--------------------------------------------------|
A|-3-3-3-3-3-3-3-3----------------------------------|
E|-----------------3-3-3-3-1-1-1-1------------------|

G|--------------------------------------------------|
D|--------------------------------------------------|
A|-3-3-3-3-3-3-3-3----------------------------------|
E|-----------------3-3-3-3/15-15-15-----------------|

G|-------------------------------------------------------------|
D|-------------------------------------------------------------|
A|-3-3-3-3-3-3-3-3---------------------------------------------|
E|-----------------3-3-3-3-3-3-3-3-1-1-1-1-1-1-1-3-3-3-3-3-3-3-|

(solo base 2x)
(verso 4x)
(refrão 2x)
(solo 2x)

Essa é a parte do "Eu sei que isso é o fim... Eu sei que isso é o fim... Eu sei que isso é o fim do mundo"
G|------------------------------------------------------------|
D|------------------------------------------------------------|
A|---------------------------------------------------------3--|
E|-1-1-1-1-1-1-1-1-1-1-1-1-1-1-1-1-1-1-1-1-1-1-1-1-1-1-1------|

ali no Fá Fá Fá Fá Fá(1-1-1-1-1-1-1) 
não esta na comtidade exata de notas tocasdas na musica mais vai tocando 
um  monte de Fá Fá Fá Fá até o final que acaba com Dó (corda A casa 3)
que vai soando até para de soar a nota

Comentários 0

Composição: Wally / Rodrigo Koala
Esse não é o compositor? Avise-nos.
Contribuição: ryu Correções: Adalberto , Emmanuel e mais 2 »
publicidade
fechar