One Last Breath

Creed

 Creed
Tom: D
		
Versão Simplificada

Dedilhado:

D:


E|---------2------------------------|
B|-----3-----3---3------------------|
G|---2---2-----2--------------------|
D|-0--------------------------------|
A|----------------------------------|
E|----------------------------------|


A:


E|---------0------------------------|
B|-----2-----2---2------------------|
G|---2---2-----2--------------------|
D|----------------------------------|
A|-0--------------------------------|
E|----------------------------------|


Bm:


E|---------2------------------------|
B|-----3-----3---3------------------|
G|---4---4-----4--------------------|
D|----------------------------------|
A|-2--------------------------------|
E|----------------------------------|


G:


E|---------3-------------------------|
B|-----3-----3---3-------------------|
G|---0---0-----0---------------------|
D|-----------------------------------|
A|-----------------------------------|
E|-3---------------------------------|




D                A                Bm   
 Please come now, I think I'm falling
                  G                  D
I'm holding on to all I think is safe
              A                   Bm
It seems I've found the road to nowhere
         G              D
And I'm trying to escape
           A                  Bm
I yelled back when I heard thunder
         G                  D
But I'm down to one last breath
     A                Bm
And with it let me say
         G
Let me say

D           F#7(11)
 Hold me now
     Bm               G                     D
I'm six feet from the edge and I'm thinking
       F#7(11)
Maybe six feet
      Bm      G
Ain't so far down

D                A               Bm              
 I'm looking down now that it's over
              G             D    
Reflecting on all of my mistakes
             A                 Bm
I thought I found the road to somewhere
 G                     D
Somewhere in HIS grace
        A            Bm  
I cried out heaven save me
         G                  D 
But I'm down to one last breath
     A              Bm
And with it let me say
        G
Let me say


D           F#7(11)
 Hold me now
     Bm               G                     D
I'm six feet from the edge and I'm thinking
       F#7(11)
Maybe six feet
      Bm         G
Ain't so far down


D           F#7(11)
 Hold me now
     Bm               G                     D
I'm six feet from the edge and I'm thinking
       F#7(11)
Maybe six feet
      Bm         G
Ain't so far down
    Bm         G
I'm so far down

Em        G  G9  D
Sad eyes follow me
              A              Bm                G
But I still believe there's something left for me
    Em          G    G9   D
So please come stay with me
                 A              Bm                G
'Cause I still believe there's something left for you and me
    G
For you and me
    G
For you and me

D           F#7(11)
 Hold me now
     Bm               G                     D
I'm six feet from the edge and I'm thinking
D           F#7(11)
 Hold me now
     Bm               G                      D
I'm six feet from the edge and I'm thinking
       F#7(11)
Maybe six feet
      Bm         G
Ain't so far downD           F#7(11)
 Hold me now
     Bm               G                      D
I'm six feet from the edge and I'm thinking
       F#7(11)
Maybe six feet
      Bm         G
Ain't so far down

D                A                Bm   
 Please come now, I think I'm falling
                  G               
I'm holding on to all I think is safe

Comentários 1

  • ian ian: Postado em 11/12/2014 22:59

    Gostei Muito :D

Composição: Evans / Günter Schulz / Kawan Prather / MC Bucheca / Scott Stapp / Thompson
Esse não é o compositor? Avise-nos.
Exibir acordes »
publicidade
fechar