Who'll Stop The Rain

Creedence Clearwater Revival

 Creedence Clearwater Revival
Tom: C
		
Introdução: G  ( G  D/F# )
            Em  ( Em  D/F# )
            G

(Riff da Introdução)


E|-----3--------3--------3--------3--------3--------3-|
B|-0--------0--------0--------0--------0--------0-----|
G|---0--------0--------0--------0--------0--------0---|
D|----------------------------------------------------|
A|----------------------------------------------------|
E|----------------------------------------------------|



Primeira Parte:

 G
Long as I remember
 C                G
Rain been comin' down

Clouds of mystery pourin'
    C              G
Confusion on the ground

 C                   G
Good men through the ages
  C                 G
Tryin' to find the sun
C               D
And I wonder, still I wonder
  Em             G    (Riff 1)
Who'll stop the rain?


Segunda Parte:


I went down Virginia
          C                G
Seekin' shelter from the storm
                  Bm
Caught up in the fable
   C                  G  (Riff 2)
I watched the tower grow

 C                   G
Five year plans and new deals
  C                 G    (Riff 2)
Wrapped in golden chains
C               D
And I wonder, still I wonder
  Em             G    (Riff 3)
Who'll stop the rain?


Ponte: G  ( Am  G  D )  ( Am  C  Em )
       G


Terceira Parte:

 G
Heard the singers playin'
 C                  G
How we cheered for more
                        Bm
The crowd had rushed together
  C             G
Tryin' to keep warm

  C                  G      (Riff 4)
Still the rain kept pourin'
 C            G    (Riff 5)
Fallin' on my ears
C               D
And I wonder, still I wonder
  Em
Who'll stop the rain?


Final: G  ( G  D/F# )
       Em  ( Em  D/F# )
       G  ( G  D/F# )
       Em  ( Em  D/F# )

(Riff do Final)


E|-----3--------3--------3--------3--------3--------3-|
B|-0--------0--------0--------0--------0--------0-----|
G|---0--------0--------0--------0--------0--------0---|
D|----------------------------------------------------|
A|----------------------------------------------------|
E|----------------------------------------------------|




Riff 1:


E|----------------------------------------------------|
B|-----3----------------------------------------------|
G|-2h4---2h4p2p0-0------------------------------------|
D|------------------------0---------------------------|
A|--------------------0h2---0h2p0---------------------|
E|--------------------------------3-------------------|


Riff 2:


E|----7----5--3---------------------------------------|
B|----------------------------------------------------|
G|-/7---7--5--4---------------------------------------|
D|----------------------------------------------------|
A|----------------------------------------------------|
E|----------------------------------------------------|


Riff 3:


E|----------------------------------------------------|
B|-----3----------------------------------------------|
G|-2h4---2h4p2p0-0------------------------------------|
D|----------------------------------------------------|
A|----------------------------------------------------|
E|----------------------------------------------------|


Riff 4:


E|----7---3-------------------------------------------|
B|----------------------------------------------------|
G|-/7---5-4-------------------------------------------|
D|----------------------------------------------------|
A|----------------------------------------------------|
E|----------------------------------------------------|


Riff 5:


E|----7------3----------------------------------------|
B|----------------------------------------------------|
G|-/7-----/4------------------------------------------|
D|----------------------------------------------------|
A|----------------------------------------------------|
E|----------------------------------------------------|

Comentários 15

  • ERNANI CARNEIRO FILHO ERNANI CARNEIRO FILHO: Postado em 31/10/2014 22:04

    Tão de SACANAGEM ???

  • paulinao paulinao: Postado em 15/08/2014 10:59

    Tirem a chamada , não tem vídeo aula

  • paulinao paulinao: Postado em 13/08/2014 15:27

    KD a Aula?

  • izzi izzi: Postado em 13/08/2014 08:42

    Kd a vídeo aula?

  • leo2505 leo2505: Postado em 14/05/2014 01:25

    Aquele Bm da primeira estrofe (clouds of mystery pourin') tá errado, não tem, ele mantem em G e cai p C, na segunda estrofe em diante tm Bm

  • carlos carlos: Postado em 29/03/2013 13:29

    pessoal o C fazem ele com nona C9, fica muito bom e mais pratico, abraço

  • renatooliveiraf renatooliveiraf: Postado em 24/12/2012 14:46

    creedence, muito prazer!!!

  • caaroolineee caaroolineee: Postado em 23/11/2012 13:21

    videooo aulaaaa por favor!!!

  • venoxx venoxx: Postado em 16/11/2012 16:49

    simples mais bonita

  • venoxx venoxx: Postado em 16/11/2012 16:47

    Simples mais bacana

Exibindo 10 de 15 comentários Mostrar mais ver todos »
Composição: John Fogerty / William Duba
Esse não é o compositor? Avise-nos.
Contribuição: Bruno Hoffmann Correções: v.inny , juliocezarslim e mais 4 »
Exibir acordes »
publicidade
fechar