Mário

Cueio Limão

 Cueio Limão
Eu sou o mário...
G|-------------------------------------------------|
D|-------------------------------------------------|
A|-5-5-5-5-5-5-------------8-8-8-8-8-8-------------|
E|-------------6-6-6-6-6-6------------8-8-8-8-8-8--|

Mas eu pretendo mudar...
G|-------------------------------------------------|
D|-------------------------------------------------|
A|---------------8-8-8--7-7-7--5-5-5-5-5-5---------|
E|-6-6-6---8-8-8-----------------------------------|

Vou ser amigo do cueio
G|------------------------------------------------------------|
D|------------------------------------------------------------|
A|---------------8-8-8-7-7-7-5-5-5-5-5-5----------------------|
E|-6-6-6---7-7-7-------------------------8-8-8--6-6-6--8-8-8--|

Comentários 0

Vish! - Cifra Club
Vish! Alguém pegou todas as nossas palhetas! Nossa equipe de gnomos está resolvendo o caso! Enquanto isso fique por dentro das novidades.

Enquanto isso, fique por dentro das novidades!

Facebook CifraClub
Erro 502:
Servidor temporariamente indisponível.
Tente acessar novamente em instantes.
publicidade
fechar