Mauricinho

Cueio Limão

 Cueio Limão
Tom: F
		
(intro 2x)


    F5     D5
E|---1------------------|
B|---3-3-1--3-1-3-1-----|
G|-----3-2--3-2-3-2-2---|
D|------------------3---|
A|----------------------|
E|----------------------|


F5                 D5                      F5
Só em acabar com a festa eu já me sinto bem.
                  D5                      G5
Tomo três socos na testa, mas eu dô também.
                  Bb5                   F5
Na verdade eu nem ligo muito de apanhar.
                  D5                   F5
Sei que num é nada certo, mas tô nem ai,
                 D5                   G5
Esse é só o meu jeito de me divertir,
            Bb5                            F5
De chamar a atenção todos falam quando me vê:
        D5              G5                   Bb5
Esse é o cara que eu falei, que vai te arrebentar quando souber que é gay.

(refrão)
F5                                   Bb5
Eu dô porrada, cadeirada pra menina ver
                                        C5
Que quem manda na parada aqui não é você.
       Bb5          F5 ( Bb5 C5 )
Sei que elas vão gostar.

(intro)

F5                D5                       F5
As patricinhas me adoram, então eu dou moral
                     D5                     G5
mas um dia eu peguei uma que não foi legal,
              Bb5                        F5
tinha tomado um Whisky que eu a fiz beber.
               D5                   F5
A maldita me pediu um cavalo de pau
                  D5                   G5
mas enquanto eu rodava ela passava mal.
                 Bb5                       F5
Manchou todo o estofado, a porta e o painel
   D5                     G5
da "BM" que o papai me deu.
              Bb5
Acho que bati demais, mas ela mereceu.

(refrão)

F5                                     Bb5
Eu dô porrada, cadeirada pra menina ver
                                        C5
Que quem manda na parada aqui não é você.
        Bb5         F5 ( Bb5 C5 )
Sei que elas vão gostar.
F5                                           Bb5
Com a garrafada eu abro a cara, quero nem saber
                                    C5
se cortar amanha sara, ja nem vai doer,
        Bb5            F5 (Bb5 C5)
mais histórias pra contar

(solo)

    F5                      D5             F5                     D5            G5
E|----------------------------------|----------------------------------------|
B|----6-----6-----6-8-8/10-8-6-6h8-6|-------6-----6-----6-8-8/10-8-6-6h8-6---|
G|5h7---5h7---5h7-------------------|---5h7---5h7---5h7--------------------7-|
D|----------------------------------|----------------------------------------|
A|----------------------------------|----------------------------------------|
E|----------------------------------|----------------------------------------|



            Bb5         F5         D5             G5          Bb5
E|---6-5---5---------5-----8-------------5---------------6-5--------6-----10~|
B|--x----8---6---------6-----6-------6-----6-----------8-----8-6-------------|
G|-7-----------7---7-----5-----5-6-7---7-----7-5---7-------------/7---/10----|
D|---------------8-------------------------------8---8-----------------------|
A|---------------------------------------------------------------------------|
E|---------------------------------------------------------------------------|



(refrão)
10.055 exibições

Comentários 0

Composição: Sabe quem é o compositor? Envie pra gente. Contribuição: Mudinho Correções: leohardcore e mais 2 »
Exibir acordes »
publicidade
fechar