Quem Matou o Bozo?

Cueio Limão

 Cueio Limão
Tom: A
		
Obs.: A música é toda tocada em power-acordes

INTRODUÇÃO

          A             C#5        F#5             D
    |----------|  |----------| |----------| |------------|
G||---------------6-6-6-6-6-6----------------7-7-7-7-7-7-||
D||--7-7-7-7-7-7--6-6-6-6-6-6--4-4-4-4-4-4---7-7-7-7-7-7-||
A||--7-7-7-7-7-7--4-4-4-4-4-4--4-4-4-4-4-4---5-5-5-5-5-5-||
E||--5-5-5-5-5-5---------------2-2-2-2-2-2---------------||

               

              essa viradinha é charme só, nem precisa

                |-----|
G||--------------6-7-6---------------7-7-7-7-7-7--------||
D||--7-7-7-7-7-7-6-7-6--4-4-4-4-4-4--7-7-7-7-7-7--------||
A||--7-7-7-7-7-7-4-5-4--4-4-4-4-4-4--5-5-5-5-5-5--------||
E||--5-5-5-5-5-5--------2-2-2-2-2-2---------------------||




G||---------------6-6-6-6-6---------------7-7-7-7-7-7---||
D||--7-7-7-7-7-7--6-6-6-6-6--4-4-4-4-4-4--7-7-7-7-7-7---||
A||--7-7-7-7-7-7--4-4-4-4-4--4-4-4-4-4-4--5-5-5-5-5-5---||
E||--5-5-5-5-5-5-------------2-2-2-2-2-2----------------||

                  


G||---------------6-7-6------------------------||
D||--7-7-7-7-7-7--6-7-6---7--------------------||
A||--7-7-7-7-7-7--4-5-4---7--------------------||
E||--5-5-5-5-5-5----------5--------------------||


Obs.: A INTRODUÇÃO É REPETIDA APÓS O REFRÃO E AO FINAL DA MUSICA; 
 E5 faz um bicorde na 7* casa da corda lá ( segunda d cima para baixo ) 
 A5  faz um bicorde na 5* casa da corda mi ( primeira d cima p/ baixo ) 
 aperte na opçao variar uma vez para ficar como bicorde ( E5 e A5 )  

A5     C#5                F#5   D5
Manhê! Hoje eu quero ir no Bozo
A5          C#5                      F#5   D5
Me arruma, eu vô aparecer na televisão
A5                C#5              F#5   D5
Lá é legal, muita festa muita alegria
A5                     E5             A5
Bozo, meu amigo, o palhaço da multidão
F#5                                      D5
Mas a minha mãe falou que hoje não vai dar
A5                                            E5
Meus amigos, como todos estamos, estamos a chorar (uááá!)
F#5                                  D5
E não tem porque, mais não quis acreditar
E5             D5                A5          
Mataram o Bozo! O palhaço popstar!
E5       D5      A5
Quem matou o Bozo?
E5                   D5         A5
Bozo, o divertido palhaço da TV!
E5       D5      A5
Quem matou o Bozo?
E5    D5                       
Bozo! Tô com saudade de você!

Introdução: A   C#5   F#5  D    ( x4 )
   
F#5                             D5
Mas os meus amigos tão todos revoltados
A5                                E5
O sujeito que matou bozo será esfolado (esfolado!)
F#5                                D5
Nosso amigo agora está em outro lugar
E5               D5                  A5
Longe das câmeras, querendo descansar
E5       D5      A5
Quem matou o Bozo?
E5                   D5         A5
Bozo, o divertido palhaço da TV!
E5       D5      A5
Quem matou o Bozo?
E5    D5                      
Bozo! Tô com saudade de você!

Intodução:  A   C#5    F#5     D  ( x4 )

Comentários 0

Composição: Willian Maia de Lima
Esse não é o compositor? Avise-nos.
Contribuição: Bru-Bru Correções: Bieeel , vocalista e mais 3 »
Exibir acordes »
publicidade
fechar