Pão Com Banha

Cummings

 Cummings Compositor: Pio Cummings
Tom: F#
		
F#5  G5
Quando estou com fome
F#5  G5
E não tenho o que comer
F#5  G5
Eu como pão com banha
      D5      C5   B5
Pra me satisfazer
F#5  G5
É muito gostoso
F#5  G5
É algo que sustenta
F#5  G5
Nutritivo e saboroso
     D5           C5   B5
É algo que alimenta

B5  C5                   B5  C5
Pão com banha Açúcar e Sal
C#5  D5       C#5  D5
Nutritivo Natural
B5  C5                   B5  C5
Pão com banha Açúcar ou Sal
D5
Muito gostoso.


E|--2/3---3-3-3-3--2/3---3-3-3-3--2/3---3-3-3-3---10-10-8-7-|
B|--2/3---3-3-3-3--2/3---3-3-3-3--2/3---3-3-3-3---10-10-8-7-|
G|----------------------------------------------------------| 
D|----------------------------------------------------------| (2x)
A|----------------------------------------------------------|
E|----------------------------------------------------------|



E|--7/8-8-8-8--7/8-8-8-8---9/10-10-10-10--9/10-10-10-12-10--|
B|--7/8-8-8-8--7/8-8-8-8---9/10-10-10-10--9/10-10-10-12-10--|
G|----------------------------------------------------------|
D|----------------------------------------------------------|
A|----------------------------------------------------------|
E|----------------------------------------------------------|



E|--7/8-8-8-8--7/8-8-8-8---10-10-10-10-10-10-10-10----------|
B|--7/8-8-8-8--7/8-8-8-8---10-10-10-10-10-10-10-10----------|
G|----------------------------------------------------------|
D|----------------------------------------------------------|
A|----------------------------------------------------------|
E|----------------------------------------------------------|


(repete tudo)
( G5 )
254 exibições

Comentários 0

Composição: Pio Cummings
Esse não é o compositor? Avise-nos.
Contribuição: Charlinhos Correções: Charlinhos »
Consegui tocarAinda não conseguiram tocar essa música. Seja o primeiro!
    Não consegui tocar
    Exibir acordes »
    publicidade
    fechar