Clima de Rodeio

Dallas Company

 Dallas Company
Tom: E
		
Intro:  * *   *     *

E|------------------------------|
B|------------------------------|
G|----9-9-9-9-9-9-9-9-9---------|   
D|----9-9-9-9-9-9-9-9-9---------|        
A|----7-7-7-7-7-7-7-7-7~--------|     
E|------------------------------|

 
Riff:       *     *

E|--------------------|
B|--------------------|
G|----9-9---9--9--9---|
D|----9-9---9--9--9---|    
A|----7-7---7--7--7---|  
E|--------------------|

 
A      B          E
A magia está no ar
A      B          C#m
Vejo fogo na arena
A      B          E
O cavalo a selar
A      B           C#m    A B E
Isso é coisa de cinema
A      B        E
Uma beca invocada
A      B          C#m
Um pingente no chapéu
A     B     E 
Ouço uma oração
A         B         C#m
Sinto um pedaço do céu
A  B   E
Alô! Galera de cowboy
A  B   C#m
Alô! Galera de peão
A                B 
Quem gosta de rodeio
                  E   (Riff)
Bate forte com a mão
A         B      E
Sinta o clima é dia de rodeio
A     B            C#m
Todo mundo se arrumou
A    B    E
Alegria de um país inteiro
A     B        C#m  A B E 
Festa de interior
A    B        E 
Uma beca invocada
A      B           C#m
Um pingente no chapéu
A     B      E 
Ouço uma oração
A         B         C#m
Sinto um pedaço do céu
A  B   E 
Alô! Galera de cowboy
A  B   C#m
Alô! Galera de peão
A                B 
Quem gosta de rodeio
                   E   (Riff)
Bate forte com a mão


*ABAFADO

Solo:


e|-----------------------------|--------------------------------|
B|-12b-10-12--12-12-12---------|--------------------------------|
G|---------------------------9-|------9----9--11-11~------------|
D|----------------------9h11---|-9h11---11----------------------|
A|-----------------------------|--------------------------------|
E|-----------------------------|--------------------------------|



e|----------------------12---------------|-17-15-14-------------|
B|-----------------10------14-14--14b-12-|---------17-15-14-12~-|
G|-----------9-11------------------------|----------------------|
D|------9-11-----------------------------|----------------------|
A|--7-5----------------------------------|----------------------|
E|---------------------------------------|----------------------|



e|--------------------------------------------------------------|
B|--------------------------------------------------------------|
G|------9------11-----------------------------------------------|
D|-9h11---9h11---------9----------------------------------------|
A|---------------------7~---------------------------------------|
E|--------------------------------------------------------------|



__________________________________________________________________
Phillipe Barbosa Guimarães 

Comentários 0

Composição: Marcelo Kiju
Esse não é o compositor? Avise-nos.
Contribuição: Marcelle Correções: supergato , Rafael e mais 2 »
Exibir acordes »
publicidade
fechar