Sabor de Mel

Damaris

 Damaris
Tom: D
		
(intro 2x) D A Bm G

(solo)


E|-------------------------------------------------------------------
B|-8/10-10-10-10-10--7-8-10-10-10-10-10------8-7-8--8-7--------------
G|----------------------------------------9---------------9-7-9/11-7-
D|-------------------------------------------------------------------
A|-------------------------------------------------------------------
E|-------------------------------------------------------------------



E|-------------------------------------------------------------------
B|-8/10-10-10-10-10-7-8-10-10-10-10-10-------8-7-8--8-7---------------
G|---------------------------------------9----------------9-7-9/11-7-
D|-------------------------------------------------------------------
A|-------------------------------------------------------------------
E|-------------------------------------------------------------------


D
O agir de Deus é lindo
      A
Na vida de quem é fiel,
        Bm
No começo tem provas amargas,
            G
Mas no fim tem o sabor do mel
        D                      A
Eu nunca vi um escolhido sem resposta
        Bm                        G
Porque em tudo Deus lhe mostra uma solução,
       D                         A
Até nas cinzas ele clama e Deus atende
                E                           A
Lhe protege, lhe defende, com as suas fortes mãos

    D
Você é um escolhido
          A
E a tua história não acaba aqui,
     Bm
Você pode estar chorando agora,
      G
Mas amanhã você irá sorrir,
         D                        A
Deus vai te levantar das cinzas e do pó,
         Bm                       G
Deus vai cumprir tudo que tem te prometido,
         D                        A
Você vai ver a mão de Deus te exaltar
                G
Quem te vê há de falar,
     A             D   A
Ele é mesmo escolhido.

                D                A
Vão dizer que você nasceu pra vencer
          Bm
Que já sabiam porque você
       G                    D
Tinha mesmo cara de vencedor,
                     A                    Bm     G
E que se Deus quer agir ninguém pode impedir
         D
Então você verá cumprir cada palavra
                A
Que o Senhor falou,

D                                         G
Quem te viu passar na prova e não te ajudou,
                    A                      D
Quando ver você na benção vão se arrepender,
                     G                   D
Vai estar entre a platéia e você no palco,
                   A                    D
Vai olhar e ver Jesus brilhando em você,

                                  D/F#  G
Quem sabe no teu pensamento você vai dizer,
                       A                 D
Meu Deus como vale a pena a gente ser fiel,
                    G                         D
Na verdade a minha prova tinha um gosto amargo,
                    A                   D
Mas minha vitória hoje tem sabor de mel,
              A                  Bm
Tem sabor de mel, tem sabor de mel,
                 G                   D
A minha vitória hoje tem sabor de mel,
              A                  Bm
Tem sabor de mel, tem sabor de mel,
                 G       A          D
A minha vitória hoje tem sabor de mel.

D A Bm G A D  D A Bm G
Deus vai te levantar...

(solo)

E|---7-9-10-9-7----------10-10-9-9-7-7-----7----------7-9-10-9-7--------9-10-7--10-10-10-9-7---------
B|-10-------------10/12------------------10----10---10-------------10/12-----------------------10-8-7-8
G|--------------------------------------------------------------------------------------------------
D|--------------------------------------------------------------------------------------------------
A|--------------------------------------------------------------------------------------------------
E|--------------------------------------------------------------------------------------------------
189.361 exibições

Comentários 0

Composição: Agaílton Silva
Esse não é o compositor? Avise-nos.
Contribuição: Rodrigo Correções: senai , Victor Garciaaa e mais 4 »
Exibir acordes »
publicidade
fechar