Cheers Darlin

Damien Rice

 Damien Rice
Tom: C
		
==============================

Intro:
Am  Dm  G  C  C/B  (x2)  (Pluck gently)


The following riff/chords are played throughout the song
The riff is played heavier and varies in some places...

     Am           Dm               G              C            C/B

e|-------------------------------------------------------------------|
B|-------------------------------------------------------------------|
G|---5--7--7/9~~--10--12--12/14~~--4--5--5/7~~-9--10--10/12--10--9~~-|
D|-------------------------------------------------------------------|
A|-------------------------------------------------------------------|
E|-------------------------------------------------------------------|

    Am            Dm               G                C   C/B

e|------------------------------------------------------------|
B|------------------------------------------------------------|
G|---5--7--7/9~~--10--12--12/14~~--4--5--5/7~~---5--4---------|
D|------------------------------------------------------6-----|
A|------------------------------------------------------------|
E|------------------------------------------------------------|



Am            Dm           G               C     C/B
Cheers darlin'  Here's to you and your lover boy
Am            Dm       G               C        C/B
Cheers darlin'  I got years to wait around for you
Am            Dm                G           C     C/B
Cheers darlin'  I've got your wedding bells in my ear
Am            Dm              G               C           C/B
Cheers darlin'  You give me three cigarettes to smoke my tears away


And I die when you mention his name
And I lied, I should have kissed you when we were running the reins

What am I darlin'?
A whisper in your ear? A piece of your cake?
What am I, darlin?
The boy you can fear? Or your biggest mistake?


Cheers darlin' here's to you and your lover man
Cheers darlin' I just hang around and eat from a can
* Cheers darlin' I got a ribbon of green on my guitar
  Cheers darlin' I got a beauty queen to sit not very far from here


  
* A 3rd gtr comes in here  (~~~ all notes)

e|------------------------------------------------------------------|
B|------------------------------------------------------------------|
G|--7--9---9--10---9--10--9--7---7--9---9--10---9--10---12--14--16--|
D|------------------------------------------------------------------|
A|------------------------------------------------------------------|
E|------------------------------------------------------------------|



I die when he comes 'round To take you home
I'm too shy, I should have kissed you when we were alone

What am I darlin'?
A whisper in your ear? A piece of your cake?
What am I, darlin?
The boy you can fear? Or your biggest mistake?

Oh what am I?
What am I darlin'?
I got years to wait...

(Elec gtr. outro...)

======End=======

   C/B
e -0-
B -1-
G -0-
D -0-
A -2-
E -0-
3.734 exibições

Comentários 0

Composição: C. Sansano / Damien Rice / Frederic Jaffre
Esse não é o compositor? Avise-nos.
Consegui tocarAinda não conseguiram tocar essa música. Seja o primeiro!
    Não consegui tocar
    Exibir acordes »
    publicidade
    fechar