Held The Hand

Daniel Johnston

 Daniel Johnston Compositor: Daniel Johnston
Tom: G
		
G Bm   Em ( D ) ( C )
Oh my lord
C Em    Am ( Bm ) ( C )
I am so bored
C        G     Bm Em ( D ) ( C )
Held the hand of Satan.

E|--------1-----------0|
B|--------1-----------1|
G|--------2-----------0|
D|----0---3--2--0-----2|
A|3-------------------3|
E|---------------------|



E|--------1-----------3|
B|--------1-----------0|
G|--------2-----------0|
D|----0---3--2--0-----0|
A|3-------------------2|
E|--------------------3|


G Bm   Em ( D ) ( C )
Oh Laurie
C          Em         Am ( Bm ) ( C )
what has happened to you?
C         G    Bm    Em  ( D ) ( C )
Held the hand of the devil

E|--------1-----------0|
B|--------1-----------1|
G|--------2-----------0|
D|----0---3--2--0-----2|
A|3-------------------3|
E|---------------------|



E|--------1-----------3|
B|--------1-----------0|
G|--------2-----------0|
D|----0---3--2--0-----0|
A|3-------------------2|
E|--------------------3|


G Bm        Em ( D ) ( C )
  I was on MTV
C              Em      Am  ( Bm ) ( C )
Everybody was lookin' at me
C         G   Bm     Em ( D ) ( C )
Held the hand of the devil

E|--------1-----------0|
B|--------1-----------1|
G|--------2-----------0|
D|----0---3--2--0-----2|
A|3-------------------3|
E|---------------------|



E|--------1-----------3|
B|--------1-----------0|
G|--------2-----------0|
D|----0---3--2--0-----0|
A|3-------------------2|
E|--------------------3|

291 exibições

Comentários 0

Composição: Eugene Kelly / Luigi Scarangella / Manuel Moretti
Esse não é o compositor? Avise-nos.
Contribuição: irving Correções: madxwal »
Consegui tocarAinda não conseguiram tocar essa música. Seja o primeiro!
    Não consegui tocar
    Exibir acordes »
    publicidade
    fechar