Darvin

Apague A Luz

221.769 exibições
Tom: G
Intro: (G G Em C)2x

(violino intro.)

   G             Em  C   G           Em        C     G
E|-----------------------------------------------------|
B|-----------------------------------------------------|
G|------------7--9---7--------12-11--9-7--4--7-5---4---|
D|-5----7--9-------------5---------------------------5-|
A|------------5--7---5--------10--9--7-5--2--5-3---2---|
E|-3----5--7-------------3---------------------------3-|


G
Nós dois sorrindo
                    Em
Tão juntos que tudo perdia o sentido
C                      G              
Em nossa mente um oceano de palavras

"...oceano de palavras(...)"


E|-3---2---3---2---3---2---3---5-3--3---2---3---2---3---2---3---5-3-|
B|---3---3---3---3---3---3---3--------3---3---3---3---3---3---3-----|
G|------------------------------------------------------------------|
D|------------------------------------------------------------------|
A|------------------------------------------------------------------|
E|------------------------------------------------------------------|


                   Em
Mais um deserto de silêncio que calava
C
E só um beijo irá quebrar

(G G Em C) - intro denovo

(violino)

   G             Em  C   G     
E|-------------------------|
B|-------------------------|
G|------------7--9---7-----|
D|-5----7--9-------------5-|
A|------------5--7---5-----|
E|-3----5--7-------------3-|


G
A vida é curta
                     Em
Pra piorar as coisas só vivemos uma
C                       G
Então temos que aproveitar em quanto é tempo somos tão jovens

"...aproveitar em quanto(...)" 

E|-3---2---3---2---3---2---3---5-3--3---2---3---2---3---2---3---5-3-|
B|---3---3---3---3---3---3---3--------3---3---3---3---3---3---3-----|
G|------------------------------------------------------------------|
D|------------------------------------------------------------------|
A|------------------------------------------------------------------|
E|------------------------------------------------------------------|


      Em              
Vamos viver o momento, 

C                       
me de a mão vamos 
   G     D 
Fugir daqui
Am           C          G       D
Nós dois correndo morrendo de rir
Am           C         G     D
Dane-se o mundo ao nosso redor
Am           C
Vamos de encontro ao nada

Am                  G
Correndo pela estrada
C                     G
Sempre na mesma direção

(G G Em C)

G
Vem pro meu lado
                     Em
Já nao importa mais futuro ou passado
C                      G
Se o que nos resta é o aqui e o agora o que os outros

"...o aqui e o agora (...)"

E|-3---2---3---2---3---2---3---5-3--3---2---3---2---3---2---3---5-3-|
B|---3---3---3---3---3---3---3--------3---3---3---3---3---3---3-----|
G|------------------------------------------------------------------|
D|------------------------------------------------------------------|
A|------------------------------------------------------------------|
E|------------------------------------------------------------------|


     Em                
pensam nós jogamos fora 

C
Apague a luz vamos
   G     D       
Fugir daqui
Am           C          G       D
Nós dois correndo morrendo de rir
Am            C         G     D
Dane-se o mundo ao nosso redor
Am           C
Vamos de encontro ao nada

Am                   G
Correndo pela estrada
C                    
Sempre na mesma direção

"Do dia claro(...)"

E|-9h8---|2|-9h8----11-|-9h8---|2|-9h8----11-9-9h8----9---9-|
B|-----8-|v|-----8-----|-----8-|v|-----8-----------8----9---|
G|-------|e|-----------|-------|e|--------------------------|
D|-------|z|-----------|-------|z|--------------------------|
A|-------|e|-----------|-------|e|--------------------------|
E|-------|s|-----------|-------|s|--------------------------|


Em
Do dia claro
G
Do momento raro
C                     Am
É assim e que sempre seja assim
             C
Que não se acabe nunca
D            G
E não mude jamais

(G Em C G|- G Em) Termina

(violino final)

E|-------|3|-----------------|
B|-------|v|-----------------|
G|-------|e|------------7--9-|
D|-5---7-|z|-5----7--9-------|
A|-------|e|------------5--7-|
E|-3---5-|s|-3----5--7-------|
    Composição: Vinícius Pig LiessiColaboração e revisão:
    • Lavio
    • Vinni
    • charlinho
    • smuel182
    • +6

    Comentários 1

    • Thom Thom: Postado em 18/04/2015 21:45

      O solo é de Violoncelo ;)

    conseguiu tocar?

    • babi
    • p_almeida
    • Jael
    • marcoslozo
    • sue_f
    • hubaleque
    • beeeeeatriz
    • •••
    Douglas Camargo3.583 visualizações
      ver covers de outras músicas »
      0:00 / 0:00

      Capítulos

        1 versão de Guitar Proformatodownloadscontribuição
        play/pausefechar subir/descer velocidade
        6ª corda E5ª corda A4ª corda D3ª corda G2ª corda B1ª corda E
          acordes
          publicidad
          fechar
          ok