Minh'alma Te Deseja

Davi Sacer

 Davi Sacer
Tom: D
		
Intro 2x:  Em7/9  F#m  Bm

Em7              F#m7  Bm7
Minh'alma te deseja
G                   D/F#
E anela por ti
Em7            F#m7  Bm7  Gm6/D
Como um rio busca o mar
                 A4
Te buscarei
Em7              F#m7  Bm7
Tudo o que eu preciso
G                      D/F#
Encontro em ti
Em7            F#m7 Bm7  Gm6/D
O meu maior tesouro é
                 A4
O teu amor
                 D/F#            A/G  G
Estou aqui       me ensi - na
              D/F#                  A4
Ate ouvir quando chamar
     A/G     D/F#          A/G  G
Estou aqui        me gui - a
  Em           Bm            A4
À tua presença Senhor

      D                     A/D
Quero te conhecer
                             Bm
Não de ouvir falar
          A          G
Mas de contigo andar
      D                                  A/D
Quero acordar de manhã
                              Bm          A          G
Ao som de tua voz     a me chamar
   D/F#                 A/C#
Faria tudo pra ter
                      Bm
A tua atenção
          A        G
Ao menos um olhar
    D/F#                              A/C#
Vê se há verdade em mim
                                Bm
E atende ao clamor
                  A   G
Do meu coração

 Solo:  Em7  F#m7  Bm7  Gm6/D  A4
E|-------------------------------------
B|-2/8 -----------8/10-8---------------
G|-1/7----6-9-7---7/9--7---9p7-9-------
D|-------------------------------------
A|--------------------------------5h7--
E|--------------------------------------


Em7              F#m7  Bm7
Tudo o que eu preciso
G                      D/F#
Encontro em ti
Em7            F#m7 Bm7  Gm6/D
O meu maior tesouro é
                 A4
O teu amor
                 D/F#            A/G  G
Estou aqui       me ensi - na
              D/F#                  A4
Ate ouvir quando chamar
     A/G     D/F#          A/G  G
Estou aqui        me gui - a
  Em           Bm            A4
À tua presença Senhor

      D                     A/D
Quero te conhecer
                             Bm
Não de ouvir falar
          A          G
Mas de contigo andar
      D                                  A/D
Quero acordar de manhã
                              Bm          A          G
Ao som de tua voz     a me chamar
   D/F#                 A/C#
Faria tudo pra ter
                      Bm
A tua atenção
          A        G
Ao menos um olhar
    D/F#                              A/C#
Vê se há verdade em mim
                                Bm
E atende ao clamor
                  A   G
Do meu coração


 Solo:  Em  Bm  A4  A  Em  F#m  Gm7  D/F#  A
E|--------------------------------------------------------------------
B|-7h8-7------5-------------------10h12-10----20b22-20-19-20-19-17-15-
G|-7-----9-7--7-7/9-7-6-------7h9-------------------------------------
D|----------------------7h9-7-----------------------------------------
A|--------------------------------------------------------------------
E|--------------------------------------------------------------------



E|-------12-14-12-10--------5-5/6-6/8-8/10-10/12-12/14-----17b19--------
B|----15------------------7-----------------------------15---------15h17
G|-14-------------------7-----------------------------------------------
D|----------------------------------------------------------------------
A|----------------------------------------------------------------------
E|----------------------------------------------------------------------



(Refrão)

Final: D/F#  Em  D  D/F#  G  C
67.444 exibições

Comentários 6

  • regysan regysan: Postado em 28/06/2013 00:47

    unçao essa musica muito boa

  • lexsfla lexsfla: Postado em 18/09/2012 12:18

    muito bom. parabéns!

  • mixgt mixgt: Postado em 23/12/2011 17:17

    show de bola ,,,muito bom msm

  • paleao paleao: Postado em 16/10/2011 09:50

    parabens

  • igaao igaao: Postado em 16/10/2011 09:40

    parabens

  • jvferreira jvferreira: Postado em 28/01/2011 19:05

    o solo tá errado!!!

Composição: Ronald Fonseca / Davi Sacer
Esse não é o compositor? Avise-nos.
Contribuição: VSA Correções: leomota , Junior Zilli e mais 11 »
Exibir acordes »
publicidade
fechar