David Bowie

Ziggy Stardust

89.788 exibições
Tom: G
Intro 4x:

    G       x       D                Cadd9       Bm           Am
E|3-------x-------2-3-2-3-2---2----|--------------------------------
B|3-------x-------3---3---3---3-3--|--3-----3-----3-----3-----3---3-
G|0-------x-------2-----------2----|---0------------0---------------
D|0-------x-------0----------------|--------------------------------
A|2-------x------------------------|3-----3-----2-----2-----0---0---
E|3-------x------------------------|--------------------------------


G                           Bm
      Ziggy played guitar,    jamming good
                C                          D
with Wierd and Gilly and the Spiders from Mars.
                   G                     Em
He played it left hand, but made it too far
              A                     C
became the special man, and we were Ziggy's band.
G                            Bm
     Ziggy really sang, with screwed up eyes and
              C                         D
screwed down hairdo like some cat from Japan.
                       G                             Em
He could lick 'em by smiling, he could leave 'em to hang.
               A                                    C
He came on so loaded man, well hung and snow-white tan.

Am        G                  F       G
     But where were the spiders,
Am              G            F                G
     while the fly tried to break our balls.
Am              G            F
     Just the beer light to guide us.

           D                                     E
And so we bitched about his fans and should we crush his sweet hands.

G                           Bm
    Ziggy played for time, jiving us that
         C                             D
we were voodoo and the kids was just crass.
            G                  Em
He was the nazz with God-given ass.
           A                                 C
He took it all too far but boy could he play guitar.

Am          G              F     G
    Making love with his ego,
Am          G          F            G
    Ziggy sucked up into his mind
Am          G          F
    Like a leper messiah.
          D                                 E
When the kids had killed the man I had to break up the band.

Tablaturas:

Verso 1:

    G                                 Bm
E|3-------------------------------|----2~~~~~~~~~~~~~~~~~~~2-0-2(3)|
B|0-------------------------------|----3~~~~~~~~~~~~~~~~~~~3-2-3---|
G|0-------------------------------|--------------------------------|
D|0-------------------------------|--------------------------------|
A|2-------------------------------|--------------------------------|
E|3-------------------------------|--------------------------------|
          Ziggy Played Guitar          Jammin' Good  With Wierd And

    C                                D
E|0-------------------------------|--------------------------------|
B|1-------------------------------|--------------------------------|
G|--------------------------------|--------------------------------|
D|--------------------------------|--------------------------------|
A|----------------3---2---3---4---|5-----5/7---5-------------------|
E|--------------------------------|--------------------7---5-------|
 Gilly.     The  Spiders From Mars            He Played it Left Hand

    G                                Em
E|--------------------------------|-----------[12]-[7]-[12]--------|
B|--------------------------------|--------------------------------|
G|--------------------------------|--------------------------------|
D|--------------------------------|--------------------------------|
A|--------------------------------|--------------------------------|
E|3---------------3---2---3---5---|0-------------------------------|

                 But Made It too far.                Became The Special


    A                                 C
E|--------------------------------|--------------------------------|
B|--------------------------------|--------------------------------|
G|2----------------------------2h4|5-------------------------------|
D|--------------------------------|x-------------------------------|
A|--------------------------------|3-------------------------------|
E|--------------------------------|--------------------------------|

 Man.               Then We were Ziggy's Band.


    G                                Bm
E|3-------------------------------|2-------------------------------|
B|2-------------------------------|3-------------------------------|
G|0-------------------------------|4-------------------------------|
D|0-------------------------------|4-------------------------------|
A|2-------------------------------|2-------------------------------|
E|3-------------------------------|2-------------------------------|

         Ziggy Really Sang.       Screwed Up eyes And Screwed Down


    C                                D
E|--------------------------------|--------------------------------|
B|--------------------------------|--------------------------------|
G|--------------------------------|--------------------------------|
D|--------------------------------|--------------------------------|
A|----------------3---2---3---4---|5-----5s7---5-------------------|
E|--------------------------------|--------------------7---5-------|

 Hairdo, Like some Cat From Japan             He could Lick 'em by


    G
E|--------------------------------|
B|--------------------------------|
G|--------------------------------|
D|--------------------------------|
A|--------------------------------|
E|3-------------------------------|

 Smiling. He Could Leave 'em to


    E                                A
E|----------------0---------------|--------------------------------|
B|--------------------0-----------|--------------------------------|
G|--------------------------------|--------------------------------|
D|----------------------------0---|--------------------------------|
A|--------------------------------|0---------------------------0h2-|
E|0-------------------------------|--------------------------------|

 Hang             they Came on so Loaded Man          Well hung And a


    C
E|--------------------------------|
B|--------------------------------|
G|--------------------------------|
D|5-------------------------------|
A|3-------------------------------|
E|--------------------------------|

  Snow-White tan

Refrão:

    A               G                F   E   F   E   F   E   F   G
E|--------------------------------|--------------------------------|
B|5-5-5-5-5\------3-3-3-3-3\------|1---0---1---0---1---0---1---3---|
G|6-6-6-6-6\------4-4-4-4-4\------|2---2---2---2---2---2---2---4---|
D|7-7-7-7-7\------5-5-5-5-5\------|3---3---3---3---3---3---3---5---|
A|7-7-7-7-7\------5-5-5-5-5\------|3---3---3---3---3---3---3---5---| (3X)
E|5-5-5-5-5\------3-3-3-3-3\------|1---0---1---0---1---0---1---3---|

             So Where were the Spiders......


   D                                 E
E|--------------------------------|0-----------0-----------0-------|
B|7-------7---x-x-x-7-x-x-7---x-x-|0-----------0-----------0-------|
G|7-------7---x-x-x-7-x-x-7---x-x-|1-------x---1-------x---1-------|
D|7-------7---x-x-x-7-x-x-7---x-x-|2-------x---2-------x---2---x---|
A|5-------5---x-x-x-5-x-x-5---x-x-|2-------x---2-------x---2---x---|
E|--------------------------------|0-----------0-----------0---x---|

 So We Bitched About his fans and should we crush his sweet hands?

(Intro 2x)

Verso 2:

    G                                Bm
E|3-------------------------------|2~~~~~~~~~~~~~~~~~~~~~~~~~~~2---|
B|3-------------------------------|3~~~~~~~~~~~~~~~~~~~~~~~~~~~3---|
G|0-------------------------------|--------------------------------|
D|0-------------------------------|--------------------------------|
A|2-------------------------------|--------------------------------|
E|3-------------------------------|--------------------------------|

        Ziggy Played For Time       Jiving us that weeee were voo-


    C                                D
E|0-------------------------------|--------------------------------|
B|1-------------------------------|--------------------------------|
G|--------------------------------|--------------------------------|
D|--------------------------------|--------------------------------|
A|----------------3---2---3---4---|5-----5s7---5-------------------|
E|--------------------------------|--------------------7---5-------|

 -Doo      The Kids Were Just Class                He Was The Nazz


    G                                E
E|--------------------------------|--------------------------------|
B|--------------------------------|--------------------------------|
G|--------------------------------|--------------------------------|
D|--------------------------------|--------------------------------|
A|--------------------------------|2---------------2---------------|
E|3-----------------------2-------|0---------------0---------------|

                  With God Given Ass             He Took It All too


    Am                               C
E|--------------------------------|--------------------------------|
B|--------------------------------|--------------------------------|
G|--------------------------------|--------------------------------|
D|2---------------------------x-x-|5---------------5-5-5-5-5---5---|
A|0---------------------------x-x-|3---------------3-3-3-3-3---3---|
E|--------------------------------|--------------------------------|
 Far              But Boy Could He Play Guitar.


(Refrão)

(Intro 4x)

Outro:

    G       x       D                Cadd9
E|3-------x-------2-3-2-3-2---2---|--------------------------------|
B|3-------x-------3---3---3---3---|3-------------------------------|
G|0-------x-------2-----------2---|0-------------------------------|
D|0-------x-------0---------------|2-------------------------------|
A|2-------x-----------------------|3-------------------------------|
E|3-------x-----------------------|--------------------------------|

                                                Ziggy Played Guit-ar


    G
E|3-----------------|-----------------------------------------------------------|
B|3-----------------|--------------------------------------------------------0--|
G|0-----------------|7-4-7-4-0-7-4-0-7-4-0-7-4-0-7-4-0-7-4-0-7-4-0-7-4-0-7-4-0--|
D|0-----------------|--------------------------------------------------------0--|
A|2-----------------|-----------------------------------------------------------|
E|3-----------------|-----------------------------------------------------------|


E|--------------------------------|
B|--------------------------------|
G|------[12]-----[7]-----[5]------|
D|--------------------------------|
A|--------------------------------|
E|--------------------------------|
    Composição: David BowieColaboração e revisão:
    • Carlos
    • Élison
    • josé
    • wytch

    Comentários 2

    • kadson kadson: Postado em 14/03/2012 17:38

      aff cifra club bora coloca cifra portugues

    • Jean Carlo Jean Carlo: Postado em 15/10/2011 16:18

      Fucking amazing!

    conseguiu tocar?

    • ygor.pontello
    • Jessica
    • igor
    • Ana Carolina
    • nejijuan
    • Mateus
    • isablack
    • •••

    covers

    Grave um vídeo tocando Ziggy Stardust e mande pra gente!

    Ex.: http://www.youtube.com/watch?v=0IvSvIwGdwk
    ver covers de outras músicas »
    0:00 / 0:00

    Capítulos

      3 versões de baixoexibiçõescontribuição e correção
      1 versão de gaitaexibiçõescontribuição e correção
      3 versões de Guitar Proformatodownloadscontribuição
      play/pausefechar subir/descer velocidade
      6ª corda E5ª corda A4ª corda D3ª corda G2ª corda B1ª corda E
        acordes
        publicidad
        fechar
        ok