Please Forgive Me Solo

David Gray

 David Gray
Tom: C
		
 S= SLIDE


E--------8-8-------8-7----|
B-------------------------|
G---7s9------7s9----------|REAPEAT  TWICE
D-------------------------|
A-------------------------|
E-------------------------|


Then he does this


E---------8-8-----8-8-------8-8--------8-7--------8-8-----|
B---------------------------------------------------------|
G---7s9-----7s9-------7s9-------7s9--------7s9------------|
D---------------------------------------------------------|
A---------------------------------------------------------|
E---------------------------------------------------------|


That?s it!! It?s my 1st TAB so it may be a little confusing. Listen to the CD for the timing and stuff.

Peace and god be with our troops. 1/1/02
1.691 exibições

Comentários 0

Consegui tocarAinda não conseguiram tocar essa música. Seja o primeiro!
    Não consegui tocar
    Exibir acordes »
    publicidade
    fechar