Tom: C
		
Introdução:


E|-------------------------------------------------------------------|
B|-------------8------------------------------------------8----------|
G|-------10--------10-------10---8---10---8----------10--------10----|
D|-----8----8----8----8--------8---8----8---8------8----8----8----8--|
A|---6------------------------------------------10-------------------|
E|-------------------------------------------------------------------|



E|-------------------------------------------------------------------|
B|---------------8-------------------------8-------------------------|
G|---------10--------10--------------10---------10-------------------|
D|-------8----8----8----8---------8-----8-----8----8-----------------|
A|---10------------------------6-------------------------------------|
E|-------------------------------------------------------------------|



E|-------------------------------------------------------------------|
B|---------------------------------8-------9-8------8----------------|
G|---10---8---10---8----------10-------10-------10-----8-------------|
D|------8---8----8---8------8----8---8-------------------------------|
A|-----------------------10------------------------------------------|
E|-------------------------------------------------------------------|




(Continua dedilhado da introdução)

You shout it loud
But I can't hear a word you say
I'm talking loud not saying much
I'm criticized but all your bullets ricochet
You shoot me down, but I get up

Ab5        Bb5                 G5
I'm bulletproof, nothing to lose
    C5           Ab5
Fire away, fire away
        Bb5                G5
Ricochets, you take your aim
     C5           Ab5
Fire away, fire away
                Bb5             G5
You shoot me down but I won't fall
     C5      Ab5
I am titanium
                Bb5             G5
You shoot me down but I won't fall
     C5
I am titanium

(Dedilhado da Introudução)
Cut me down
But it's you who'll have further to fall
Ghost town, haunted love
Raise your voice, sticks and stones may break my bones
I'm talking loud not saying much

Ab5        Bb5                 G5
I'm bulletproof, nothing to lose
    C5           Ab5
Fire away, fire away
        Bb5                G5
Ricochets, you take your aim
     C5           Ab5
Fire away, fire away
                Bb5             G5
You shoot me down but I won't fall
     C5      Ab5
I am titanium
                Bb5             G5
You shoot me down but I won't fall
     C5
I am titanium

Ab5             Bb5
Stone hard, machine gun
G5              C5
Firing at the ones who rise
Ab5      Bb5                  C5
Stone hard, as bulletproof glass

                Bb5             G5
You shoot me down but I won't fall
     C5      Ab5
I am titanium
                Bb5             G5
You shoot me down but I won't fall
     C5
I am titanium
Texto Colunas
Alterar tom ½ tom ½ tom
afinação acordes na letra esconder tabs mais »
9.932 exibições

Comentários (0)

  1. Tudo Que Você Quiser - Luan Santana Manteve-se 4.902 exibições
  2. Lepo Lepo - Psirico Manteve-se 3.570 exibições
  3. Mozão - Lucas Lucco Manteve-se 3.423 exibições
  4. Logo Eu - Jorge e Mateus Manteve-se 3.029 exibições
  5. Gaveta - Fernando e Sorocaba Manteve-se 2.722 exibições
  6. Só Os Loucos Sabem - Charlie Brown Jr. Manteve-se 2.470 exibições
  7. Pra Você - Onze:20 Manteve-se 2.088 exibições
  8. Tempo Perdido - Legião Urbana Manteve-se 1.989 exibições
  9. Fui Fiel - Gusttavo Lima Manteve-se 1.760 exibições
  10. Na Linha do Tempo - Victor e Leo Manteve-se 1.759 exibições
  1. Jorge e Mateus- Manteve-se 18.170 exibições
  2. Legião Urbana- Manteve-se 16.306 exibições
  3. Luan Santana- Manteve-se 14.644 exibições
  4. Charlie Brown Jr.- Manteve-se 14.217 exibições
  5. Fernandinho- Manteve-se 12.391 exibições
  6. Thalles Roberto- Manteve-se 9.162 exibições
  7. Aline Barros- Manteve-se 9.064 exibições
  8. Católicas- Manteve-se 8.769 exibições
  9. Victor e Leo- Manteve-se 8.687 exibições
  10. Bruno e Marrone- Manteve-se 8.333 exibições
Exibir acordes »

Cifras e tabs

Fórum Cifra Club

Aprenda

Cifra Club News

Mais Serviços Cifra Club ID

Studio Sol

©1996 - 2014 Cifra Club · o primeiro, maior e mais acessado do Brasil · 329 mil músicas · 5.9 milhões pessoas cadastradas

publicidade
fechar