Eu Sou Livre

David Quinlan

 David Quinlan
Tom: F
		
Intro: C  F  Am  G  C


E|-----------------------------------------------------------------------|
B|-----------------------------------------------------------------------|
G|-12-12-12-10-10-10-10/12-9-------------9-10-9--------------10-9--------|  (2x)
D|------------------------------10--12-----------12-10-12----------12--10|
A|-----------------------------------------------------------------------|
E|-----------------------------------------------------------------------|



E|-----------------------------------------------------------------------|
B|-13------------13--------------13--------------------------------------|
G|-----12-10-12-----12-10-12--------12-10-12--10-10~~--------------------|
D|-----------------------------------------------------------------------|
A|-----------------------------------------------------------------------|
E|-----------------------------------------------------------------------|


C5
Os cegos verão por Ti, Os mudos cantarão
F5
Os mortos viverão E os povos te adorarão
Am
As trevas fugirão
G5
E por Ti eu grito
             C5
Eu sou livre
         C5
Livre pra correr (Livre pra correr)
         F5
Livre pra dançar (Livre pra dançar)
         Am                            G5
Livre pra viver por ti (Livre pra viver por ti)
             Csus4
Eu sou livre

Interlúdio: C5

C5
ô ô ô ô (ô ô ô ô)
F5
ô ô ô ô (ô ô ô ô)
Am
ô ô ô ô (ô ô ô ô)
G5
ô ô ô ô (ô ô ô ô)
C5
Livre, livre, livre


  Riff: C5  Bb5  Ab5  Bb5  C5
E|-------------------------------------------------------------------|
B|-------------------------------------------------------------------|
G|-------------------------------------------------------------------|
D|------------------------------------------------------------3--1---|
A|-1-3-3-1-3-3-1-3-3-1-3--------------1-3-3-1-3-3-1-3-3-1-3----------|
E|-----------------------------3-2-1---------------------------------|


            Csus4          C5                  Csus4          C
Eu sou livre, Eu sou livre, Eu sou livre, Eu sou livre

Solo: C5  F5  Am  G5  C5

Comentários 5

  • Lucas Lucas: Postado em 05/11/2014 15:03

    musica show de bola

  • ghost2 ghost2: Postado em 13/05/2012 20:23

    ?

  • ghost2 ghost2: Postado em 13/05/2012 20:23

    quem quer entrar na minha banda

  • crisvillemur crisvillemur: Postado em 16/01/2012 02:47

    musica muito show.

Composição: David Quinlan
Esse não é o compositor? Avise-nos.
Contribuição: Nil Correções: José , joao e mais 3 »
Exibir acordes »
publicidade
fechar