David Quinlan

Livre Pra Te Adorar

114.332 exibições
Tom: D
Intro: D  F#m7  G  Em

Solo:


      D                F#m
E|-----------7-10-|-7h9----------------------------|
B|------7-10------|-----10-10~---------------------|
G|-s7-9-----------|--------------9b11r9-7---7-9s11-|
D|----------------|-----------------------9--------|
A|----------------|--------------------------------|
E|----------------|--------------------------------|


      G                            Em
E|---------------------------|------------------------------------------------------------|
B|---------------------------|----------------------10s12-12-12-10---10-10-10-8-7-8-8s10--|
G|-9b11---9b11r9h7---7-6-7-9-|-7h9---9-9-9s11-11-11---------------------------------------|
D|-----------------9---------|------------------------------------------------------------|
A|---------------------------|------------------------------------------------------------|
E|---------------------------|------------------------------------------------------------|


       D                                    F#m
E|-------------------------------------|----------------------------|
B|-10------10-12p10-12b15-12b14r12~-10-|----------------------------|
G|-----s11-----------------------------|---11s9-7-7---7-9-7h9~---11-|
D|-------------------------------------|------------9---------------|
A|-------------------------------------|----------------------------|
E|-------------------------------------|----------------------------|


       G                                   Em
E|------------------17---------------|------------------------------|
B|----12-14-15-17b19--19r17-15p14-15-|------------------------------|
G|-14--------------------------------|-14h16-14-14~--14h16-14~------|
D|-----------------------------------|------------------------------|
A|-----------------------------------|------------------------------|
E|-----------------------------------|------------------------------|


Intro: D  F#m7  G  Em

D                                   F#m7
Nada vai me separar do Teu amor por Mim
           G                                      Em
Pois foi o Teu amor por mim que arrebatou meu coração
D                                 F#m7
Nada vai distanciar o Teu amor de mim
         G                                   A
Pois foi Teu amor em mim que despertou esta canção

G            Bm7
Livre pra Te adorar
    A
Rasgar meu coração
       Em
E demonstrar minha paixão Por Ti Sou

G            Bm7         A                    Em
Santo, tu és Santo, imensuravel sem igual és minha canção

      G                   A         Bm
E|-----------------------------|-----------------------------------|
B|--12---12---12---------12----|-14b(1/2)-14b(1/2)-14b(1/2)---15br-|
G|--14b~-14b~-14b~---s14----14-|-----------------------------------|
D|-----------------------------|-----------------------------------|
A|-----------------------------|-----------------------------------|
E|-----------------------------|-----------------------------------|


      A                                         Em
E|-----------------------------------------|-------------------------------|
B|-14----12-15-12----------12s15-12--------|-------------------------------|
G|----14----------14-12-14---------------7-|-9br-7---9br-7---9br-7---9br-7-|
D|-----------------------------------7-9---|-------9-------9-------9-------|
A|-----------------------------------------|-------------------------------|
E|-----------------------------------------|-------------------------------|


      G
E|---------------------------------------|---------------------------------------|
B|-12-0-0-10-0-0-12-0-0-10-0-0-12-10-0-0-|-12-0-0-10-0-0-12-0-0-10-0-0-12-10-0-0-|
G|---------------------------------------|---------------------------------------|
D|---------------------------------------|---------------------------------------|
A|---------------------------------------|---------------------------------------|
E|---------------------------------------|---------------------------------------|


       Bm
E|---------------------------------------|---------------------------------------|
B|-15-0-0-14-0-0-12-0-0-10-0-0-12-10-0-0-|-15-0-0-14-0-0-12-0-0-10-0-0-12-10-0-0-|
G|---------------------------------------|---------------------------------------|
D|---------------------------------------|---------------------------------------|
A|---------------------------------------|---------------------------------------|
E|---------------------------------------|---------------------------------------|


       A
E|-------------------------------------------------------------------------|
B|-10s12-12-12-12-12-12s14-14-14-14-14-14s15-15-15-15s17-17-17-17-17-17s19-|
G|-------------------------------------------------------------------------|
D|-------------------------------------------------------------------------|
A|-------------------------------------------------------------------------|
E|-------------------------------------------------------------------------|


                    Em
E|-----------|----------------------------|
B|--7s17*----|--17b~--17b~~---------------|
G|-----------|----------------------------|
D|-----------|----------------------------|
A|-----------|----------------------------|
E|-----------|----------------------------|
    Composição: David M. QuinlanColaboração e revisão:
    • Tchan-tcha
    • jefferson alves (IMW do Viegas)
    • zewh_91
    • valter.vincit
    • marcos.cordeiro2
    • +1

    Comentários 0

    conseguiu tocar?

    • Natan
    • jmb7
    • riihnazireu
    • reuller

    covers

    Grave um vídeo tocando Livre Pra Te Adorar e mande pra gente!

    Ex.: http://www.youtube.com/watch?v=0IvSvIwGdwk
    ver covers de outras músicas »
    0:00 / 0:00

    Capítulos

      1 versão de Guitar Proformatodownloadscontribuição
      play/pausefechar subir/descer velocidade
      6ª corda E5ª corda A4ª corda D3ª corda G2ª corda B1ª corda E
        acordes
        publicidad
        fechar
        ok