How Do You Know You

Days Of The New

 Days Of The New
Tom: E
		
Tabbed by: Ryan Ethier
Email: *

Tuning: Db Ab Db Gb Bb db

Part 1:

db|-----------------------------------------------------------|
Bb|-----------------------------------------------------------|
Gb|-----------2-----------------2-----0-----------------------|
Db|---0---------0---0-----0-------0-----0---0-------0-----0---|
Ab|-----0-------------0-----0-----------------0-------0-------|
Db|-0-----0-2-----3-----5-----5-----5-----5-----3-5-----5---3-|


Pat2:


db|-0-0-0-0/0-0\0-|
Bb|-3-3-3-1/3-3\1-|
Gb|-2-2-0-0/0-0\0-|
Db|-0-0-0-0/0-0\0-|
Ab|-0-3-5-3/5-5\3-|
Db|-0-0-5-3/5-5\3-|


Solo (Not 100% accurate, but it fits well with timing and chords)  
                                       3x

db|---------------------------|-------------------|
Bb|-13b-10~-13-10-------------|------10-----------|
Gb|---------------13-12-10----|-12h13----13-12-10-|
Db|------------------------12-|-------------------|
Ab|---------------------------|-------------------|
Db|---------------------------|-------------------|



db|---------------------|-----------------------------------------------|
Bb|---------------------|-----------------------------------------------|
Gb|----------10---------|-7-5-------------------7-7-7h9-7-5h7-5-----2-5-|
Db|-------------10-10\5-|-----7-6-5---5h6-7-7/9-----------------5h6-----|
Ab|-10-11-12------------|-----------8-----------------------------------|
Db|---------------------|-----------------------------------------------|



db|------------------------|------------------------------|
Bb|------------------------|-10---10-8--------------------|
Gb|-----------2------------|----7-------10-9-5-9--10-7--5-|
Db|-----3-5p6---6p5-3-5p3--|------------------------------|
Ab|-3h5------------------5-|------------------------------|
Db|------------------------|------------------------------|



db|--------------------------------------------------------|
Bb|--------------------------------------------------------|
Gb|-----------2-3-2---2------------------------------------|
Db|-----3-5-6-------5---5-3-5-3---3--------------------3---|
Ab|-3-5-------------------------5---5-3-5-3-0-3-0-3-5b---5-|
Db|--------------------------------------------------------|


Just listen to the song to figure out how many times to play each part.

Comentários 0

Composição: G. Thornton
Esse não é o compositor? Avise-nos.
Consegui tocarAinda não conseguiram tocar essa música. Seja o primeiro!
    Não consegui tocar
    Exibir acordes »
    publicidade
    fechar