Shelf In The Room Solo

Days Of The New

 Days Of The New
Tom: E
		
Tabbed By: Chase Nichols
Email:*

This is my first transcription of a solo but I'm pretty sure it's close if not dead on.
For the verse and chorus go to Steve Becker's version. It is damn good.

Notation
 /  slide up
 \  slide down
brp bend note then release then pull

Solo

Eb |-----------------------------------------------------------------|
Bb |---------------------------------------------------6-6-6\--------|
Gb |---------5-------------------------------------------------------|
Db |-------5---------7p5-5-------------------------5-----------------|
Ab |-----5---------5-------7p5-7-5-7p5---------------8---------------|
Db |-5/7-------5/7---------------------7p5-5p3-5-3-------------------|




Eb |---------------------------------------------------------------|
Bb |-5h6---5h6---------------------------6--6-8-8brp6-6------------|
Gb |-----7-----7-7-7p5---5-------------------------------7-7\------|
Db |-------------------7---7-5h7-5-5---5---------------------------|
Ab |---------------------------------5-----------------------------|
Db |---------------------------------------------------------------|

Comentários 0

Consegui tocarAinda não conseguiram tocar essa música. Seja o primeiro!
    Não consegui tocar
    Exibir acordes »
    publicidade
    fechar