Com ou Sem

Dazaranha

 Dazaranha
Tom: G
		
INTRO(ouça a musica pra pegar o tempo exato)

E|--------------------------------------------
B|--------------------------------------------
G|-------------7-7-7--------------------------
D|--------5-5--5-5-5-5-5-5-5-5---5-4-7--------
A|-7-7-7--3-3--------3-3-3-3-3---3-2-5--------
E|-5-5-5--------------------------------------


Intro: (Am C Am) (G Am G) (Am C Am) C D  


(Am C Am)                       (G Am G)
   Sou pequeno por coisas pequenas
                                   (Am C Am) C D 
Brinco de louco só pra ficar do teu lado
          (G Am G)                (Am C Am) C D 
Eu beijo a flor pra ficar de bem contigo
Am       G      (Am C Am)  (G Am G)     Am (Am B C)
Teu bustiê excitará os roseirais da África,
           G
Oh oh, oh, Africa!
(Am C Am)             (G Am G)                 (Am C Am) 
  Sair por baixo do céu que é só pra te lembrar
                               (G Am G)
Que sou pequeno por coisas pequenas
                                    (Am C Am) C D
Brinco de louco só pra ficar do teu lado
Am           C           G              D
  Mas, vivo com ou sem você! Mas, vivo com ou sem! 
Am           C           G              D         Am  C      G
  Mas, vivo com ou sem você! Mas, vivo com ou sem! Saber se vou sobreviver! 
Solo (violino) (Am C Am) (G Am G) (Am C Am) C D

Repete (tudo de novo até o fim), (menos o solo). 

 O outro solo (guitarra) é assim: (Am C Am) (G Am G) (Am C Am) C D
                                  (Am C Am) (G Am G) (Am C Am) C D  


Am           C            G             D      (solo 2)
  Mas, vivo com ou sem você! Mas, vivo com ou sem! 

 Solo 2 (é mais ou menos assim)

E|--------------------------------------------
B|--------------------------------------------
G|----------------------------------------
D|-----5~7-5------------------------
A|----7-----7----------------------
E|-5~8-------5--------------------------------


Am           C           G              D        Am   C      G
  Mas, vivo com ou sem você! Mas, vivo com ou sem! Saber se vou sobreviver! 
44.225 exibições

Comentários 0

Composição: Moriel
Esse não é o compositor? Avise-nos.
Contribuição: zanelatto
Consegui tocarAinda não conseguiram tocar essa música. Seja o primeiro!
    Não consegui tocar
    Exibir acordes »
    publicidade
    fechar