Deep Purple

Smoke on The Water

146.003 exibições
Tom: C

  G5                                                  C5
e|---------------|---------------|------------------|-------------------------------------------|
B|---------------|-13b-11----11b-|------------------|-------------------------------------------|
G|-----------12~-|--------12-----|--------12-15-15b-|-14-15--14h15p14-12-14-12h14p12-10-12-10-8-|
D|---12--15------|---------------|-12--15-----------|-------------------------------------------|
A|---------------|---------------|------------------|-------------------------------------------|
E|---------------|---------------|------------------|-------------------------------------------|


  G5
e|-----------------|-------------------------|-------8---------------------------|
B|-----------------|---8-11b-11b-11b--8--11--|-----8---11-10-8-------------------|
G|-10b-10b-10b-10b-|-7-----------------------|-10b-------------11-10-8-10-8-7p5--|
D|-----------------|-------------------------|-----------------------------------|
A|-----------------|-------------------------|-----------------------------------|
E|-----------------|-------------------------|-----------------------------------|


  C5                  G5
e|------------------|-----------------|------------|-------3----3--------------------|
B|------------------|-----------------|------------|-----3---6b---6-5-3--------------|
G|--------5---8-7-5-|-3b~--5--3--2--3-|-2--3--2--0-|--5b----------------6-5-3---5-3--|
D|--8-7-5---8-------|-----------------|------------|--------------------------5------|
A|------------------|-----------------|------------|---------------------------------|
E|------------------|-----------------|------------|---------------------------------|


  C5                   G5
e|-------------------|-3-----3-6-8b-|-8b-8-6-8---|-----------8------8------8----8-10--|
B|---------------3-6-|---3-6--------|----------8-|-11----------11-8---11-8---11-------|
G|--5b-5b-5b-5b------|--------------|------------|-----10b----------------------------|
D|-------------------|--------------|------------|------------------------------------|
A|-------------------|--------------|------------|------------------------------------|
E|-------------------|--------------|------------|------------------------------------|


               C5                                             F5
e|-11--13-13b-|-13-13b-13-13b-13-13b-|-13-13b-13-10--------|------------------|
B|------------|----------------------|--------------13-13b-|-----6------------|
G|------------|----------------------|---------------------|--5b---5b-3-5p3---|
D|------------|----------------------|---------------------|----------------5-|
A|------------|----------------------|---------------------|------------------|
E|------------|----------------------|---------------------|------------------|

Comentários 7

140 .
  • Alex Alex: Em 30/01/2014 10:48

    Pq quando clica na versão da vídeo-aula vai pra versão 12 ? tentem corrigir esse problema !!!!

  • thaynara thaynara: Em 26/01/2014 12:48

    cade a cifra original?nessa e outras musicas ñ aparecem?

  • kaique.gama.5 kaique.gama.5: Em 12/01/2014 11:02

    pq o cifra ta assim?

  • jean jean: Em 06/01/2011 11:33

    foda é o solo da musica one do metallica

  • Biel Biel: Em 05/01/2011 17:47

    nossa oq fizeram com a cifra?

  • Alice Alice: Em 11/12/2010 14:18

    Facil de tocar essa musica, só o solo q é mais complicadinho, mas consegui aprende :)

    • MORPHISTEN MORPHISTEN: Em 05/01/2011 20:54

      daonde. Esse solo ai é barbada

140 cancelar
0:00 / 0:00

Capítulos

    Esta versão de cifra não é usada na videoaula. Exiba a cifra correta.
    2 versões de bateria exibições contribuição e correção
    2 versões de gaita exibições contribuição e correção
    1 versão de partiturasformatodownloadscontribuição
    play/pausefechar subir/descer velocidade
    6ª corda E5ª corda A4ª corda D3ª corda G2ª corda B1ª corda E
      acordes
      publicidad
      fechar
      ok