Pantera Cor-de-rosa

Desenho Animado

 Desenho Animado
Tom: F
		
(solo)


e|---------------------------------------
B |---------------------------------------
G |---------------------------------------  2x
D |---------------------------------------
A |---------------------------------------
E |--1-2-3-4----4-3-2-1-------------------



E |---------------------------------------
B |---------------------------------------
G |---------------------------------------  2x
D |---------------------------------------
A |------------------------------------9-8
E |--7-7-9h8-5h6--9-10-7-10-9-10-7-10-----



E |---------------------------------------
B |---------------------------------------
G |---------------------------------------  2x
D |---------------------------------------
A |------------------------------------9-8
E |--7-7--9h8-5h6--9-10-7-10-9-10-7-10----
32.872 exibições

Comentários 0

Exibir acordes »
publicidade
fechar