Columbia Intro

Destroy The Runner

 Destroy The Runner
Tom: C
		
Intro
Guitar I

|------------------------------------|
|------------------------------------|
|------------------------12-10-------|
|------10h12----12-10----------12-10-|
|10-10-------12-------12-------------|
|------------------------------------|

first ending 

|--------------------------------------|
|-------------------10-----------------|
|----------------------12--10-12-10----| 
|------10h12----10------------------12-|
|10-10-------12------------------------|
|--------------------------------------|

second ending

|--------------------------------------|
|-------------------10-------12b-------|
|----------------------12-10-----------| 
|------10h12----10---------------------|
|10-10-------12------------------------|
|--------------------------------------|
Play the intro three times

INtro GUitar II

|--------------------------------------|
|--------------------------------------|
|-----------------------3--------------|x2
|-0---------------0-3---3--------------|
|-0---------------0-3---1--------------|
|-0---------------0-3------------------|

PM                *


|----------------------------------|
|----------------------------------|
|----------------------------------|
|0-0-000000--000-0-3-333333--333-0-|x1
|0-0-000000--000-0-3-333333--333-0-|
|0-0-000000--000-0-3-333333--333-0-|

PM * ******  *** *  *******  *** *


|--------------------------------------|
|--------------------------------------|
|------------------3-333333-3-5-555555-|
|0-0-000000--000-0-3-333333-3-5-555555-|x1
|0-0-000000--000-0-1-111111-1-3-355555-|
|0-0-000000--000-0---------------------|

PM * ******  *** *  ******* *   *****


|--------------------------------------|
|--------------------------------------|
|------------------3-333333-3-5-555555-|
|0-0-000000--000-0-3-333333-3-5-555555-|x2
|0-0-000000--000-0-1-111111-1-3-355555-|
|0-0-000000--000-0---------------------|


359 exibições

Comentários 0

Consegui tocarAinda não conseguiram tocar essa música. Seja o primeiro!
    Não consegui tocar
    Exibir acordes »
    publicidade
    fechar