Outro Lugar

Detonautas

 Detonautas
Tom: D
		
(Intro) B5   A5   G5   D5


E|----------------------------------------------------------------------------------|
B|----------------------------------------------------------------------------------|
G|--11-11-11-11-11-11-11\9--9-9-9-9-9-9/11--x-x-11\7-7-7-7-7-7/9-7-9-7-7-7-9-7-9----|
D|--x--x--x--x--x--x--x\x---x-x-x-x-x-x/x---x-x-x\-x-x-x-x-x-x/x-x-x-x-x-x-x-x-x----|
A|--9--9--9--9--9--9--9\7---7-7-7-7-7-7/9---x-x-9\-5-5-5-5-5-5/7-5-7-5-5-5-7-5-7----|
E|----------------------------------------------------------------------------------|



E|------------------------------------------------------------------------|
B|------------------------------------------------------------------------|
G|--11-11-11-11-11-11-11-12-11-12-14-14-14-14--14-14--12--11-7-7-7-7-7-7--|
D|--x--x--x--x--x--x--x--x--x--x---x--x--x--x--x--x---x---x--x-x-x-x-x-x--|
A|--9--9--9--9--9--9--9--10-9--10--12-12-12-12-12-12--10--9--5-5-5-5-5-5--|
E|------------------------------------------------------------------------|


               B5               A5    G5           D5
Ainda vou te levar pra outro lugar além do sol do mar
                  B5       A5      G5             D5
Onde eu possa te ter, te amar e o tempo vai ser maior

                           Gm    F#m   Em            D
Não te quero assim tão longe, tanto quanto o céu do mar
                   Gm     F#m    Em             D
Quero ter você mais perto, certo, pronto pra te amar

               B5               A5    G5           D5
Ainda vou te levar pra outro lugar além do sol do mar
                  B5       A5      G5             D5
Onde eu possa te ter, te amar e o tempo vai ser maior

                   Gm    F#m   Em             D
Quero ter o teu encanto, tanto, pra me enfeitiçar
                Gm    F#m   Em            D
Quero ter você mais perto, pra poder te amar

E|---------------------------------------------------|------------------------------------------------
B|------14h15p-----------------------------------|-------------------14---14h15p-----------------
G|-------------------16-------14-----------16~--|-----------16--------------------------14b-------
D|--------------------------------------16---------|----------------------------------------------------
A|---------------------------------------------------|---------------------------------------------------
E|---------------------------------------------------|-------------------------------------------------






E|----------------------------------------------------\-----------------------------------------------
B|----------------------------------------------------\---------14h15p-------------------------------------
G|-----14-----14b-----14----14b---14-----------------------------------16--------14-------------
D|----------------------------------------------16---\--------------------------------------------------
A|----------------------------------------------------\--------------------------------------------------
E|----------------------------------------------------\------------------------------------------------



E|-----------------------------------------------------------------------19----17--15----14-------------
B|---------------------------------------15---17--17br------15--------------------------------17br---15-
G|-----------------16~---------16-----------------------------------------------------------------------
D|-------16--------------------------------------------------------------------------------------------
A|-----------------------------------------------------------------------------------------------------
E|---------------------------------------------------------------------------------------------------



(riff 1)

     Bm           G               D
E|----------2----------------3-------------2---------------------------------|
B|-----3---3--------3------3----------3---3-------2----0/10-10-\8-----8-\0---|
G|---4----4-----0--------0-------2-------2-----2----2--0/11---11\10-10--10\0-|
D|---4---4--------0----0-------0----0---0--------2---------------------------|
A|-2-----------------------------------------0-------------------------------|
E|------------3--------------------------------------------------------------|


(riff 2)

E|-2-----0------2----0--------------------------------------------|
B|---3-----3------3----2------------------------------------------|
G|-----4-----4------2-----2---------------------------------------|
D|----------------------------------------------------------------|
A|----------------------------------------------------------------|
E|----------------------------------------------------------------|


( Bm G D A )
Eu podia até tentar acreditar nessa ilusão, não sei porque, viagem errada então
O meu caminho me levava a acreditar, que eu estava certo
Que eu era esperto e coisa e tal
Cara sinistro da zona sul, andando com um monte de santinha pra lá e para cá,
Mas com você foi diferente, foi de primeira, quando eu te vi até me faltou ar

    B5                                G5
As oportunidades nessa vida me fazem crer,
                                              D5
Que quando estamos frente a frente, só eu e você,
                                A5
O tempo passa tudo é mais fácil, difícil é
                                        B5
esquecer o que eu passo quando você se vai
                                  G5
Eu fico aqui bolando planos mirabolantes,
inconstantes, parecem iniciantes
    D                                             A5
Eu vou fazer de tudo pra trazer você pra perto de mim,
                   G5
pode acreditar que sim!

               B5               A5    G5           D5
Ainda vou te levar pra outro lugar além do sol do mar
                  B5       A5      G5             D5
Onde eu possa te ter, te amar e o tempo vai ser maior
               B5               A5    G5           D5
Ainda vou te levar pra outro lugar além do sol do mar
                  B5       A5      G5
Onde eu possa te ter, te amar e o tempo vai ser maior

(final)

E|---------------------------------------------------------------------------------|
B|---------------------------------------------------------------------------------|
G|--11-11-11-11-11-11--12--9-9-9-9-9-9--11--7-7-7-7-7-7/9---7-7-7-7-7-7---9--7--9--|
D|--x--x--x--x--x--x---x---x-x-x-x-x-x--x---x-x-x-x-x-x/x---x-x-x-x-x-x---x--x--x--|
A|--9--9--9--9--9--9---10--7-7-7-7-7-7--9---5-5-5-5-5-5/7---5-5-5-5-5-5---7--5--7--|
E|---------------------------------------------------------------------------------|



E|---------------------------------------------------------------------------------|
B|---------------------------------------------------------------------------------|
G|-11-11-11-11-11-11/14-14-14-14-14-14-14--12--11---7--14--12--9--7~--7--9--11~--7~|
D|--x--x--x--x--x--x/x---x--x--x--x--x--x---x---x---x---x---x--x--x~--x--x---x~--x~|
A|--9--9--9--9--9--9/12-12-12-12-12-12-12--10---9---5--12--10--9--5~--5--7---9~--5~|
E|---------------------------------------------------------------------------------|

Comentários 30

  • Jorge Jorge: Postado em 29/10/2014 01:50

    Nem precisa de vídeo aula e os caras estão pedindo kkkkkk

  • leonardo leonardo: Postado em 15/10/2014 11:01

    achoq ja tem muita gente pedindo e eles nao fazem... paia dmais

  • Lay Lay: Postado em 11/10/2014 23:00

    Video aula cara, por favor! :c

  • giovane.fortuna.5 giovane.fortuna.5: Postado em 28/08/2014 22:44

    faz um video aula ai mano !!

  • Carlos Carlos: Postado em 29/04/2014 13:36

    Manin por favor faz uma video aula ai preciso muito e me aviza no e-mail vlw....

  • hudson.silva.9440 hudson.silva.9440: Postado em 17/03/2014 21:05

    faz ai uma vídeo aula pra nos!!!

  • bruno.delima.73 bruno.delima.73: Postado em 12/10/2013 18:38

    é

  • Emanoel Emanoel : Postado em 08/10/2013 20:35

    video aula Galera Por Favor

  • júnior júnior: Postado em 17/08/2013 15:50

    Bom eles fazem video alula das musicas q tem +ou- 300000 asseços e essa ja tem 800000

  • gabriel.pinheiro.165 gabriel.pinheiro.165: Postado em 19/07/2013 19:17

    QUAL A BATIDA DA MÚSICA?

Exibindo 10 de 30 comentários Mostrar mais ver todos »
Composição: Joyce Sims / Michelle Grainger
Esse não é o compositor? Avise-nos.
Contribuição: Bob Correções: thibr20 , jaum!. e mais 6 »
Exibir acordes »
publicidade
fechar