Detonautas

Outro Lugar

911.228 exibições
Tom: D
Introdução: B5  A5  G5  D5
            B5  A5  G5


   B5                                        A5
E|-----------------------------------------------------|
B|-----------------------------------------------------|
G|-9/11--11-11--11-11-11-11--11-11--11-11-11-11\9------|
D|-----------------------------------------------------|
A|-7/9----9--9---9--9--9--9---9--9---9--9--9--9\7------|
E|-----------------------------------------------------|

   ↓      ↓  ↑   ↑  ↓  ↑  ↓   ↓  ↑   ↑  ↓  ↑  ↓


                               G5
E|-----------------------------------------------------|
B|-----------------------------------------------------|
G|-9-9--9-9-9-9--9-9/11--9-9-9-9\7--7-7--7-7-7-7/9-----|
D|-----------------------------------------------------|
A|-7-7--7-7-7-7--7-7/-9--7-7-7-7\5--5-5--5-5-5-5/7-----|
E|-----------------------------------------------------|

   ↓ ↑  ↑ ↓ ↑ ↓  ↓ ↑     ↑ ↓ ↑ ↓    ↓ ↑  ↑ ↓ ↑ ↓


              D5
E|-----------------------------------------------------|
B|-----------------------------------------------------|
G|-7-7--7--7--7--7-7--7-7-7-7/9--9-7--7-9--------------|
D|-----------------------------------------------------|
A|-5-5--5--5--5--5-5--5-5-5-5/7--7-5--5-7--------------|
E|-----------------------------------------------------|

   ↓ ↑  ↑  ↓  ↓  ↓ ↑  ↑ ↓ ↑ ↓    ↓ ↑  ↑ ↓


   B5                                         A5
E|-----------------------------------------------------|
B|-----------------------------------------------------|
G|-9/11--11-11--11-11-11-11/12--12-11--11-12--12/14----|
D|-----------------------------------------------------|
A|-7/-9---9--9---9--9--9--9/10--10--9---9-10--10/12----|
E|-----------------------------------------------------|

   ↓      ↓  ↑   ↑  ↓  ↑  ↓      ↓  ↑   ↑  ↓   ↓


E|-----------------------------------------------------|
B|-----------------------------------------------------|
G|-14-14--14-14-14-14--12-12--11-11\-------------------|
D|-----------------------------------------------------|
A|-12-12--12-12-12-12--10-10---9--9--------------------|
E|-----------------------------------------------------|

    ↓  ↑   ↑  ↓  ↑  ↓   ↓  ↑   ↑  ↓


   G5
E|-----------------------------------------------------|
B|-----------------------------------------------------|
G|-7--7-7--7-7-7-7--7-7--7-7-7-7-----------------------|
D|-----------------------------------------------------|
A|-5--5-5--5-5-5-5--5-5--5-5-5-5-----------------------|
E|-----------------------------------------------------|

   ↓  ↓ ↑  ↑ ↓ ↑ ↓  ↓ ↑  ↑ ↓ ↑ ↓


Primeira Estrofe:

                B5              A5
Ainda vou te levar pra outro lugar
  G5             D5
Além do sol, do mar
                  B5       A5
Onde eu possa te ter, te amar
   G5              D5
O tempo vai ser maior


Segunda Estrofe:

                        Gm
Não te quero assim tão longe
 F#m    Em                D
Tanto quanto o céu do mar
                     Gm
Quero ter você mais perto
 F#m     Em
Certo, pronto pra te amar
                 

Terceira Estrofe:

                B5              A5
Ainda vou te levar pra outro lugar
  G5             D5
Além do sol, do mar
                  B5       A5
Onde eu possa te ter, te amar
   G5              D5
O tempo vai ser maior


Quarta Estrofe:

                   Gm
Quero ter o teu encanto
 Gm      F#m             D
Tanto, pra me enfeitiçar
                Gm
Quero ter você mais
 Gm      F#m
Perto, pra poder te amar


Solo: B5  A5  G5  D5
      B5  A5  G5  D5


E|-9h10p9-----------------------------------9h10p9-----|
B|---------12--10------10h12~~----10h12--12---------10~|
G|-----------------11----------------------------------|
D|-----------------------------------------------------|
A|-----------------------------------------------------|
E|-----------------------------------------------------|


E|-----------------------------------------------------|
B|-10-10b12r10----10-10b12r10----10--------------------|
G|----------------------------------9h11~--------------|
D|-----------------------------------------------------|
A|-----------------------------------------------------|
E|-----------------------------------------------------|


E|-9h10p9---------------------------10-12-12b14r12--12~|
B|---------12--10------10h12~~--/12--------------------|
G|-----------------11----------------------------------|
D|-----------------------------------------------------|
A|-----------------------------------------------------|
E|-----------------------------------------------------|


E|-17b19--17--15--14-----------------------------------|
B|--------------------17b19r17--15~~-------------------|
G|-----------------------------------------------------|
D|-----------------------------------------------------|
A|-----------------------------------------------------|
E|-----------------------------------------------------|



Quinta Estrofe:

(Guitarra 1)


   Bm                    G6
E|------------------2---------------------0-|
B|-------3--------3------------0--------0---|
G|-----4----4---4------------0----0---0-----|
D|---4--------4------------0--------0-------|
A|-2----------------------------------------|
E|-----------------------3------------------|


   D7M                   A
E|-------2----------2-----------------------|
B|-----2----2---2--------------2------------|
G|---2--------2---2----------2--------------|
D|-0-----------------------2----------------|
A|-----------------------0------------------|
E|------------------------------------------|


E|---------5------3------2------------------|
B|-3--5/7----7\5----5\3---------------------|
G|------------------------------------------|
D|------------------------------------------|
A|------------------------------------------|
E|------------------------------------------|


(Guitarra 2)

   P.M . . . .  .   . . . .  .   . .         

E|------------------------------------------|
B|------------------------------------------|
G|-6h7-7-7-7-7--6h7-7-7-7-7--6h7-7-7--------|
D|------------------------------------------|
A|------------------------------------------|
E|------------------------------------------|


   Bm         G6        D7M        A
E|-2----------0---------2----------0--------|
B|----3----------0---------2----------0--3p2|
G|-------4----------4---------2-------------|
D|------------------------------------------|
A|------------------------------------------|
E|------------------------------------------|


E|---------5------3------2------------------|
B|-3--5/7----7\5----5\3---------------------|
G|------------------------------------------|
D|------------------------------------------|
A|------------------------------------------|
E|------------------------------------------|


Bm
   Eu podia até tentar acreditar nessa
    G6
Ilusão, não sei por quê

Viagem errada então
D7M
    O meu caminho me levava a acreditar
             A
Que eu tava certo

Que eu era esperto e coisa tal
Bm
   Cara sinistro da zona sul
   G6
Andando com um monte de santinha
                 D7M
Pra lá, e pra cá

Mas com você foi diferente
           A
Foi de primeira

Quando eu te vi, até me faltou o ar


Sexta Estrofe:

   B5                                  G5
As oportunidades dessa vida me fazem crer
    
Quando estamos frente a frente
           D5
Só eu e você
             
O tempo passa tudo é mais fácil
   A5
Difícil é esquecer o que eu passo
                B5
Quando você se vai
                               G5
Fico aqui bolando plano mirabolantes

Fico inconstante, pareço iniciante
    D5
Eu vou fazer de tudo
                              A5
Pra trazer você pra perto de mim
                       G5
Pode acreditar que sim


Sétima Estrofe:

                B5              A5
Ainda vou te levar pra outro lugar
  G5             D5
Além do sol, do mar
                  B5       A5
Onde eu possa te ter, te amar
   G5              D5
O tempo vai ser maior


Oitava Estrofe:

                B5              A5
Ainda vou te levar pra outro lugar
  G5             D5
Além do sol, do mar
                  B5       A5
Onde eu possa te ter, te amar
   G5        D5
O tempo vai ser maior


Final: B5  A5  G5  D5
       B5  A5  G5


   B5                                        A5
E|-----------------------------------------------------|
B|-----------------------------------------------------|
G|-9/11--11-11--11-11-11-11--11-11--11-11-11-11\9------|
D|-----------------------------------------------------|
A|-7/9----9--9---9--9--9--9---9--9---9--9--9--9\7------|
E|-----------------------------------------------------|

   ↓      ↓  ↑   ↑  ↓  ↑  ↓   ↓  ↑   ↑  ↓  ↑  ↓


                               G5
E|-----------------------------------------------------|
B|-----------------------------------------------------|
G|-9-9--9-9-9-9--9-9/11--9-9-9-9\7--7-7--7-7-7-7/9-----|
D|-----------------------------------------------------|
A|-7-7--7-7-7-7--7-7/-9--7-7-7-7\5--5-5--5-5-5-5/7-----|
E|-----------------------------------------------------|

   ↓ ↑  ↑ ↓ ↑ ↓  ↓ ↑     ↑ ↓ ↑ ↓    ↓ ↑  ↑ ↓ ↑ ↓


              D5
E|-----------------------------------------------------|
B|-----------------------------------------------------|
G|-7-7--7--7--7--7-7--7-7-7-7/9--9-7--7-9--------------|
D|-----------------------------------------------------|
A|-5-5--5--5--5--5-5--5-5-5-5/7--7-5--5-7--------------|
E|-----------------------------------------------------|

   ↓ ↑  ↑  ↓  ↓  ↓ ↑  ↑ ↓ ↑ ↓    ↓ ↑  ↑ ↓


   B5                                         A5
E|-----------------------------------------------------|
B|-----------------------------------------------------|
G|-9/11--11-11--11-11-11-11/12--12-11--11-12--12/14----|
D|-----------------------------------------------------|
A|-7/-9---9--9---9--9--9--9/10--10--9---9-10--10/12----|
E|-----------------------------------------------------|

   ↓      ↓  ↑   ↑  ↓  ↑  ↓      ↓  ↑   ↑  ↓   ↓


E|-----------------------------------------------------|
B|-----------------------------------------------------|
G|-14-14--14-14-14-14--12-12--11-11\-------------------|
D|-----------------------------------------------------|
A|-12-12--12-12-12-12--10-10---9--9--------------------|
E|-----------------------------------------------------|

    ↓  ↑   ↑  ↓  ↑  ↓   ↓  ↑   ↑  ↓


   G5
E|-----------------------------------------------------|
B|-----------------------------------------------------|
G|-7--7-7--7-7-7-14--12-12--11-11\--7------------------|
D|-----------------------------------------------------|
A|-5--5-5--5-5-5-12--10-10---9--9\--5------------------|
E|-----------------------------------------------------|

   ↓  ↓ ↑  ↑ ↓ ↑  ↓   ↓  ↑   ↑  ↓   ↓               


E|-----------------------------------------------------|
B|-----------------------------------------------------|
G|-7/9--9--9/11--7-------------------------------------|
D|-----------------------------------------------------|
A|-5/7--7--7/-9--5-------------------------------------|
E|-----------------------------------------------------|

   ↓    ↓  ↓     ↓
    Composição: Detonautas Roque ClubeColaboração e revisão:
    • v.inny
    • Pedro988
    • jaum!.
    • Rafah
    • +6

    Comentários 32

    140 .
    • Mateus Mateus: Em 15/06/2015 20:07

      Onde vcs conseguiram esse Backing Track com vocal?

    • Guilherme Guilherme: Em 23/12/2014 00:10

      Falta soh pegar os riffs... Uma video aula seria bom *-*

    • Jorge Jorge: Em 29/10/2014 01:50

      Nem precisa de vídeo aula e os caras estão pedindo kkkkkk

    • leonardo leonardo: Em 15/10/2014 11:01

      achoq ja tem muita gente pedindo e eles nao fazem... paia dmais

    • Lay Lay: Em 11/10/2014 23:00

      Video aula cara, por favor! :c

    • giovane.fortuna.5 giovane.fortuna.5: Em 28/08/2014 22:44

      faz um video aula ai mano !!

    • Carlos Carlos: Em 29/04/2014 13:36

      Manin por favor faz uma video aula ai preciso muito e me aviza no e-mail vlw....

    • hudson.silva.9440 hudson.silva.9440: Em 17/03/2014 21:05

      faz ai uma vídeo aula pra nos!!!

    • bruno.delima.73 bruno.delima.73: Em 12/10/2013 18:38

      é

    • Emanoel Emanoel : Em 08/10/2013 20:35

      video aula Galera Por Favor

    Exibindo 10 de 32 comentários Mostrar mais ver todos »
    140 cancelar
    0:00 / 0:00

    Capítulos

      1 versão de bateria exibições contribuição e correção
      1 versão de gaita exibições contribuição e correção
      3 versões de Guitar Proformatodownloadscontribuição
      play/pausefechar subir/descer velocidade
      6ª corda E5ª corda A4ª corda D3ª corda G2ª corda B1ª corda E
        acordes
        versão revisada v.inny instrutor de guitarra
        publicidad
        fechar
        ok