Its A Sight To Behold

Devendra Banhart

 Devendra Banhart
Tom: G
		
Album: Rejoicing In The Hands
Tabbed by Riccardo Castellan (*)


   Am                             C

e-----------------------....| -------------------------....|
b-----1----1----1----1--....| -------1----1----1----1--....|
g----2----2----2----2---....| ------0----0----0----0---....|
d-------2---------2-----....| ---------2---------2-----....|
a--0---------0----------....| ----3---------3----------....|
E-----------------------....| -------------------------....|


   G                              F 

e-----------------------....| -------------------------....|
b-----1----1----1----1--....| -------1----1----1----1--....|
g----0----0----0----0---....| ------2----2----2----2---....|
d-------0---------0-----....| ---------3---------3-----....|
a-----------------------....| ----3---------3----------....|
E--3---------3----------....| -------------------------....|




Am

Am              C
It's a sight to behold 
         Am              C
When you got small words to mold 
G                     Am
 And you can make 'em your own 


      F
Still love it would be much better 
G
Love it would be much better 
   Am      G
I'm told... 


          Am     C
It's like golden corn 
     Am              C
And I love its golden glow 
         Am                            C
It's the little head inside your little hole 
G                             Am
 And out spring some sparkling thoughts 

      F
Still love it would be much better 
G
Love it would be much better 
F
Love it would be much better 
G
Love it would be much better 
  Am     G
I hold...


          Am      C
It's like finding home 
     Am       C
In an old folk song 
            Am         C
That you've never ever heard 
         Am         C
Still you know every word 
        G                Am
And for sure you can sing along 


    F
But love it would be much better 
G
Love it would be much better 
F
Love it would be much better 
G
Love it would be much better 
  Am     G    Am
I know....  I know.

1.235 exibições

Comentários 0

Composição: Devendra Banhart
Esse não é o compositor? Avise-nos.
Consegui tocarAinda não conseguiram tocar essa música. Seja o primeiro!
    Não consegui tocar
    Exibir acordes »
    publicidade
    fechar