Tom: A
		
Intro 2x: F#m  D  A  E


E|-17-16------14-12------|-17-16------------------|
B|--------14---------14--|--------14-----14-17-14-|
G|-----------------------|------------------------|
D|-----------------------|------------------------|
A|-----------------------|------------------------|
E|-----------------------|------------------------| (2x)


    F#m        A            D        Bm
Na dor, na aflição, quando não vejo solução
           F#m          A9
Digo a mim mesmo, minha alma espera em Deus
          D                             Bm
Abro meus lábios e creio mesmo contra a esperança
A                         Bm
Creio em um Deus pra quem tudo é possível
A                         Bm
Creio em um Deus que tudo pode mudar
D                          F#m            E
Creio em um Deus que fez o céu, a terra e mar
D                      E
Todo-Poderoso, mas é fiel pra se importar

 A
Comigo
            D
Se importa comigo
             A/C#   E
Se importa comigo (2x)

    F#m        A            D        Bm
Na dor, na aflição, quando não vejo solução
           F#m          A9
Digo a mim mesmo, minha alma espera em Deus
          D                             Bm
Abro meus lábios e creio mesmo contra a esperança
A                         Bm
Creio em um Deus pra quem tudo é possível
A                         Bm
Creio em um Deus que tudo pode mudar
D                          F#m            E
Creio em um Deus que fez o céu, a terra e mar
D                      E
Todo-Poderoso, mas é fiel pra se importar

 A
Comigo
            D
Se importa comigo
             A/C#   E
Se importa comigo (2x)


      Solo guitarra 1: F#m D A E D D
E|-------------------------------17-17-16-16-16-16-|
B|-------------------14-14-14-14-------------------|
G|-14-14-14-16-16-16-------------------------------|
D|-------------------------------------------------|
A|-------------------------------------------------|
E|-------------------------------------------------|


     Solo guitarra 2 (bate na corda varias vezes):

E|-17-16------14-12------|-17-16-------------------|
B|--------14---------14--|--------14-----14-17-14--|
G|-----------------------|-------------------------|
D|-----------------------|-------------------------|
A|-----------------------|-------------------------|
E|-----------------------|-------------------------|


D
Creio
   F#m
Eu creio até o fim
D
Creio
 F#m
Aqui não é o fim
D           Bm          F#m           E
E se eu não ver minha vitória aqui, Coroa de Glória
Bm D               F#m        A
Creio! É o que me aguarda ali
Bm D      F#m             A
Creio!Eu creio até o fim
Bm D    F#m             A
Creio! Aqui não é o fim
Bm D       F#m            A
Creio! Eu creio até o fim!
78.081 exibições

Comentários 10

  • gabrielle.almeida.3576 gabrielle.almeida.3576: Postado em 23/04/2014 12:28

    alguem pode me dizer qual seria o ritmo dessa musica??

  • vide0 vide0: Postado em 13/10/2013 12:52

    Jesse vc pode substituir o acorde de A/C# pelo A (lá maior natural)

    • grejamim grejamim: Postado em 02/03/2014 19:38

      treine a nota colocando primeiro os dedos 4 e 3 na quinta casa , ai os dedos 2 e1 fica mais facil de encaixar !

  • Jesse Jesse: Postado em 23/07/2013 15:19

    QUERIA SABER SE TEM COMO SUBSTITUIR A/C# POR OUTRA NOTA

    • grejamim grejamim: Postado em 02/03/2014 19:36

      Comentário removido

  • Weslley Weslley: Postado em 22/03/2013 15:47

    só o finalzinho do solo ta errado e essa musica com sempre é com 2 guitarras uma sem capotraste e a outra com o o capotraste na 9° casa!!!!!

    • lukinhasheiik lukinhasheiik: Postado em 20/04/2013 09:28

      MAIS TIPO CONTINUA COM OS MESMOS ACORDES A DO CAPO NA 9°CASA

  • samiasantana samiasantana: Postado em 01/12/2012 22:10

    A primeira música do dt que consegui tocar kkkkkkkkk facil d+

  • edson_djn edson_djn: Postado em 01/10/2012 10:59

    Muito fácil!!! Foi a primeira musica que aprendi a tocar!!! E CREIO que tocarei muito mais para o louvor do nosso Senhor JESUS CRiSTO!!!!!!

  • debson52 debson52: Postado em 09/06/2012 18:47

    viciei nessa música!!!!!!!!!!!!!!!!!!!!

Composição: Russell Fragar
Esse não é o compositor? Avise-nos.
Contribuição: apvdtedm Correções: Pablo , zeu1976 e mais 6 »
Exibir acordes »
publicidade
fechar