Em Meio a Tua Glória

Diante do Trono

 Diante do Trono Compositor: Ana Paula Valadão
Tom: A
		
Intro: F#m  A  E  Bm

Solo Intro:

E:--------------------------------------:
B:------10-10-9-9/14-14-14/17-17-17~----:
G:----9---------------------------------:
D:-7------------------------------------:
A:--------------------------------------:
E:--------------------------------------:



E:--------------------------------------:
B:------9-9-10-10-7-7/2-2-2/5-----------:
G:----7---------------------------------:
D:-9------------------------------------:
A:--------------------------------------:
E:--------------------------------------:



E:--------------------------------------:
B:------10-10-9-9/14-14-14/17-17-17~----:
G:----9---------------------------------:
D:-7------------------------------------:
A:--------------------------------------:
E:--------------------------------------:



E:--------------------------------------:
B:------9-9-10-10-7-7/2-2-2/5-5-5/2~----:
G:----7---------------------------------:
D:-9------------------------------------:
A:--------------------------------------:
E:--------------------------------------:

            F#m       A		    Bm    D
Eu quero entrar pelo novo e vivo caminho
  F#m		A	      E  Bm
Aberto por Teu sangue lá na cruz
        F#m	      A		  Bm           D
Do Teu lado o véu rasgado que me dá acesso ao Pai
            F#m	     A		E    D
Eu quero entrar em meio à Tua glória

       A		   E
Sou curado em meio à Tua glória
         A/C#		    E
Transformado de glória em glória
         Bm
Enche o céu do meu coração
       D
Com a tua Shekinah
         	            E
Quero estar em meio à Tua glória


( SOLO NO MINUTO 3:51 guitarra 1)


E:--------------------------------------:
B:-----10-10-10/17-17/7-10--------------:
G:--------------------------------------: ( fica repitindo isso até o minuto 6:02)
D:--------------------------------------:
A:--------------------------------------:
E:--------------------------------------:


( SOLONO MINUTO 4:40 guitarra 2)


E:---------------------------------------------------------------------------------------------------------:
B:--10-10-10-10-10-10-9-9-9-9-9-9-----------------------------------------10-10-10-10-10-10-9-9-9-9-9-9----:
G:--------------------------------9-9-9-9-9-9-6-6-6-6-6-7-7-7-7-9-9-9-9-9----------------------------------:
D:---------------------------------------------------------------------------------------------------------:
A:---------------------------------------------------------------------------------------------------------:
E:---------------------------------------------------------------------------------------------------------:



E:-----------------------------------------------:
B:-----------------------------------------------:
G:--9-9-9-9-9-9-6-6-6-6-6-9-6-6-6-9-6-6-6-6------:
D:-----------------------------------------------:
A:-----------------------------------------------:
E:-----------------------------------------------:


( fica repitindo isso até o minuto 6:02)

  F#m	   A	 E	 Bm
O medo se vai, a alegria vem
       F#m	 A	     E    Bm
Eu sou livre em meio à Tua glória
  F#m	   A	 E	 Bm
O medo se vai, a alegria vem
       F#m	 A	     E    Bm
Eu sou livre em meio à Tua glória

F#m  A  E  Bm
Glória, glória
       F#m	 A	     E    Bm
Eu sou livre em meio à Tua glória
F#m A	E Bm
Glória, glória
       F#m	 A	     E    Bm
Eu sou livre em meio à Tua glória
23.334 exibições

Comentários 1

Composição: Ana Paula Valadão
Esse não é o compositor? Avise-nos.
Contribuição: ju_ Correções: violeiro15 , viniciuscg e mais 3 »
Exibir acordes »
publicidade
fechar