No Teu altar

Diante do Trono

 Diante do Trono
Tom: D
		
Solo Introdução: 

   e||--------------------------------------------------------------------|
   B||----------------------------15-14------------------------14^15--17- |
   G||---------------------12^14----------14-------14^16--14--------------|
   D||---14^16--14^16--14----------------------16-------------------------|
   A||--------------------------------------------------------------------|
   E||--------------------------------------------------------------------|




   e||--14-14^15--14------------------------------------------------------|
   B||-----------------17--15--14----14^15------------14-15-15^17--15-----|
   G||--------------------------------------14--14-16---------------------|
   D||--------------------------------------------------------------------|
   A||--------------------------------------------------------------------|
   E||--------------------------------------------------------------------|




   e||----------------------------------------------------------|
   B||-14-------------------------------------------------------|
   G||------14^16--14------11^12-11--------11---------------14--|
   D||---------------------------------14------14--12-11/12-----|
   A||----------------------------------------------------------|
   E||----------------------------------------------------------|

^= arrasta até a casa indicada 
/= não arrasta, apenas aperta



INTRO: ||  D9  |  G7M(9)  |  Bm7    Bm7(add4)  |  A9  ||

D9	         A/D
Não posso mais viver pra mim mesmo
 G/D	  G9/D	  A9/C#
Ajuda-me,       Senhor
  Bm7	     F#m7
Ensina-me os Teus pensamentos
    Em7(add4)	             A9
Que são      maiores que os meus
	A/G   G9      Bm7(add4)
Os meus so - nhos  te dou
	A/G   G9	  Bm7(add4)
Os meus pla - nos, meu querer
    1:	A/C#	     D9	    Bm7	  A9	[começo]
2 e 3:	A/C#	     G7M    Bm7	  A	[coro]
        Deixo em Teu altar

    D9	        A9    Em7(add4)	         G7M	  A9
       Lugar de morte,       lugar de se en - tregar
    Bm7	           F#m7	         G7M	A9
       Como um sacrifício vivo a Ti
    Bm7	          F#m7	 G9	     Bm7   A/C#
       Lugar de renúncia,   lugar de con - fiar
    D9	        A9	            G9
       Que Tua graça é melhor que a vida
               1:    [instr.]
               2:    [coro]
  G9/B	  A    3:    [tag]
Estou no Teu       altar

Instrumental: ||  G7M     D9/F#  |  G7M     Bm7(add4)  |

               |  G7M     D9/F#  |  Em7(add4)    G/A    A9  ||


Tag: ||  G7M(9)  |  D9/F#  |  Em7(add4)  |  D/F#  ||

Fim: ||  G7M(9)  |  D9/F#  |  Em7    Em7(add4)  |  G9/B    A/C#  |  D9  ||
38.453 exibições

Comentários 0

Composição: Ana Paula Valadão
Esse não é o compositor? Avise-nos.
Contribuição: Tintim
Exibir acordes »
publicidade
fechar