Toma o Teu Lugar

Diante do Trono

 Diante do Trono Compositor: Ana Paula Valadão
Tom: G
		
Intro:  G   G   G   G   G  D/F# Em C   G  D/F# Em C   G

(Cada nota bate 4x)


E|---------------------------------------------
B|----12-13----15-12---------------------------
G|----------12-------14------------------------
D|---------------------------------------------
A|---------------------------------------------
E|---------------------------------------------






E|-------------------------12------------------
B|----12-13----15-12----------15---------------
G|----------12-------14------------------------
D|---------------------------------------------
A|---------------------------------------------
E|---------------------------------------------


G           C9/G            G
Estamos reunidos para adorar
G              C9/G          G
Ao único que é digno exaltar
Em                              D9
Entronizado nos louvores do Teu povo
C      D9
Reina, reina!

G                         D9/F#
Toma o Teu lugar na minha vida
Em                           C
Toma o Teu lugar na minha família
Am                         C           Em  D/F#
Toma o Teu lugar, Rei da glória, reina!
G                         D9/F#
Toma o Teu lugar nesta cidade
Em                        C
Toma o Teu lugar nesta nação
Am                         C          Em   D/F#  G
Toma o Teu lugar, Rei da Glória, reina!

INTRO: G  D/F# Em C

Em                              D9
Entronizado nos louvores do Teu povo
C      D9
Reina, reina!

(Refrão)

C                    Em      D/F#
Levantai, ó portas, vossas cabeças
C                        Em     D/F#
Levantai-vos, ó portais eternos

C
Para que entre o Rei da glória
Am
Quem é esse Rei da glória?
C                         Em   D/F#
O Senhor dos exércitos, Jesus!

C
Para que entre o Rei da glória
Am
Quem é esse Rei da glória?
C                        Em     D/F#
O Senhor dos exércitos, Jesus!

(Refrão Lento )

Em                              D
Entronizado nos louvores do Teu povo
C      D9/F#  G
Reina, reina!
77.705 exibições

Comentários 3

  • uill7 uill7: Postado em 08/11/2013 20:27

    RIFF ta errado tem mas notas ai mano ... mas boa versão

  • ivan ivan: Postado em 12/10/2013 19:26

    Da hora ,mas na segunda vez que diz:(o Senhor dos exércitos Jesus) não é (Em) e sim(G)...Abraço.

  • Gabriel Gabriel: Postado em 17/07/2013 14:23

    Muito bolado! Que Show mané!

Composição: Ana Paula Valadão Bessa
Esse não é o compositor? Avise-nos.
Contribuição: jefferson.flach Correções: Daniel , evandrotale e mais 2 »
Exibir acordes »
publicidade
fechar