Tua presença

Diante do Trono

 Diante do Trono
Intro:1

E--------------------------------------------
A--------------------------------------------
D----7-8-10-10/15--------------12--10--8--7--
G--------------------------------------------

E------------------------------------------------------------------
A------------------------------------------------------------------
D--------------14--12--11-----------8--11----------------10/7-7-10-
G---14--12----------------------------------10h12--10--------------

E---------------------------------------------------------------------------
A---------------------------------------------------------------------------
D----8-7-8------------------------------------------------------------8/3-3-
G--------------10/12----8-10-10/12--10-8-7----8-8/10--10-9------------------


Intro:2 ( para voltar ao inicio)

E--------------------------------------------------------------------------
A--------------------------------------------------------------------------
D----7-8-10—10/15----------12--10--8--7------------------------14---12--11-
G-------------------------------------------------------14---12------------


Intro: final

Tu és tudo que eu  preciso...

E------------------------------------------
A------------------------------------------
D---10h12-10---8h10-10h8-7---------12------
G--------------------------------------10--

E----------------------------
A----------------------------
D---9-10-12------------------
G---------------12/14----12--



_______________________________________________________
Contribuição: Elias Rodrigues(bassman8910@ibest.com.br)
7.496 exibições

Comentários 0

Composição: Ana Paula Valadão
Esse não é o compositor? Avise-nos.
publicidade
fechar