Holy Diver

Dio

 Dio
Tom: D
		
Intro:

E|---------------------------------|------------------------------|
B|---------------------------------|------------------------------|
G|---------------------------------|------------------------------|
D|-----5-------5-------5-7-8-------|-5-------5-------8----3-------|
A|-----3---3-3-3---3-3-3-5-6-------|-3---3-3-3---3-3-6----1-------|
E|---------------------------------|------------------------------|



E|---------------------------|-----------|
B|---------------------------|-----------|
G|---------------------------|-----------|
D|5-------5-------8-----3----|-5---3--5--|
A|3---3-3-3---3-3-6-----1----|-3---1--3--|
E|---------------------------|-----------|



E|---------------------------------|------------------------------|
B|---------------------------------|------------------------------|
G|---------------------------------|------------------------------|
D|-----5-------5-------5-7-8-------|-5-------5-------8----3-------|
A|-----3---3-3-3---3-3-3-5-6-------|-3---3-3-3---3-3-6----1-------|
E|---------------------------------|------------------------------|



E|---------------------------|-----------------------|
B|---------------------------|-----------------------|
G|---------------------------|-----------------------|
D|5-------5-------8-----3----|-5---3------------3----|
A|3---3-3-3---3-3-6-----1----|-3---1--6-------6-1----|
E|---------------------------|--------4-------4------|


Versos:

E|---------------------------------------------------------------|
B|---------------------------------------------------------------|
G|---------------------------------------------------------------|
D|----5-------5-------5-------5-------5-------5-------5----------|
A|----3---3-3-3---3-3-3---3-3-3---3-3-3---3-3-3---3-3-3---3-3-6--|
E|------------------------------------------------------------4--|



E|-----------------------------------------------------------------|
B|-----------------------------------------------------------------|
G|-----------------------------------------------------------------|
D|-5-------5-------3-------3---------------------------------------|
A|-3---3-3-3---3-3-1---1-1-1---1-1-6-------6-------6-------6-------|
E|---------------------------------4---4-4-4---4-4-4---4-4-4---4-4-|



E|--------|
B|--------|
G|--------|
D|---3----|
A|-6-1----|
E|-4------|



E|---------------------------------------------------------|
B|---------------------------------------------------------|
G|---------------------------------------------------------|
D|-5-------5-------5-------5-------5-------5-------5*------|
A|-3---3-3-3---3-3-3---3-3-3---3-3-3---3-3-3---3-3-3----6\-|
E|------------------------------------------------------4\-|



E|-----------------------------------------------------------|
B|-----------------------------------------------------------|
G|-----------------------------------------------------------|
D|-5-------5-------3-------3-------5-------5-------5-------5-|
A|-3---3-3-3---3-3-1---1-1-1---1-1-3---3-3-3---3-3-3---3-3-3-|
E|-----------------------------------------------------------|



E|------------------------------------------|
B|------------------------------------------|
G|------------------------------------------|
D|---5-------5-------3-------3-------6------|
A|---3---3-3-3---3-3-1---1-1-1---1-1-6------|
E|-----------------------------------4------|


Pre Refrão 1:
 ...gotta get awaaaaaay...

E|------------------4-----------------|
B|------------------------------------|
G|-----------------------5------------|
D|-6----------------------------------|
A|-6----------------------------------|
E|-4----------------------------------|


Refrão 1:

E|---------------------------------|------------------------------|
B|---------------------------------|------------------------------|
G|---------------------------------|------------------------------|
D|-----5-------5-------5-7-8-------|-5-------5-------8----3-------|
A|-----3---3-3-3---3-3-3-5-6-------|-3---3-3-3---3-3-6----1-------|
E|---------------------------------|------------------------------|



E|---------------------------|-----------|
B|---------------------------|-----------|
G|---------------------------|-----------|
D|5-------5-------8-----3----|-5---3--5--|
A|3---3-3-3---3-3-6-----1----|-3---1--3--|
E|---------------------------|-----------|


(Versos)

Pré Refrão 2:

E|-----------------4------4-----------------------------------|
B|-------------------4------4---------------------------------|
G|---------------5----5-------------3---------------5---------|
D|--------6-------------------------3---------------5---------|
A|-10-----6-------------------------1---------------3---------|
E|--------4---------------------------------------------------|


Refrão 2:

E|-------------------------------------------------------------------|
B|-------------------------------------------------------------------|
G|--5-5*------------3-3*--------------------------------------3------|
D|--5-5-------------3-3-------------6-6*----------6-----------3------|
A|--3-3-------------1-1-------------6-6-----------6-----------1------|
E|----------------------------------4-4-----------4------------------|



E|------------------------------------------------------------------|
B|------------------------------------------------------------------|
G|---5-5*------------3-3*-----------------------------------3-------|
D|---5-5-------------3-3-----------6------------6-----------3-------|
A|---3-3-------------1-1-----------6------------6-----------1-------|
E|---------------------------------4------------4-------------------|



E|------------------------------------------------------------------|
B|------------------------------------------------------------------|
G|--5-5*------------3-3*------------------------------------3-------|
D|--5-5-------------3-3-----------6-6*----------6-----------3-------|
A|--3-3-------------1-1-----------6-6-----------6-----------1-------|
E|--------------------------------4-4-----------4-------------------|



E|-------------------------------------------------------------------|
B|-------------------------------------------------------------------|
G|---5-5*------------3-3*--------------------------------------------|
D|---5-5-------------3-3-----------6---------------------------------|
A|---3-3-------------1-1-----------6---------------------------------|
E|---------------------------------4---------------------------------|


(Versos)

Solo:
          1/2
           /\

E|-------//\\-----------------------------------------------------|
B|----10//--\(10)-8---------------------8-\-7-5-5~~---------------|
G|----10/----(10)-8-10-8----------------8-\-7-5-5~~---------------|
D|----------------------10-8-8~~--------------------5-------------|
A|----------------------------------------------------8-5-5~~///--|
E|----------------------------------------------------------------|



E|----------------------------------------------------------------|
B|----------------------------------------------------------------|
G|----------------------------------------------------------------|
D|-3-5---------------------------8-5-----------------5-5----------|
A|-1-3---------------------------6-3-----------------3-3----------|
E|----------------------------------------------------------------|


                                                     1

E|--------------------------------------------------/\~~~----|
B|-----------8-8-8-7-7-7-5-5-5---------------------/---------|
G|-----------8-8-8-7-7-7-5-5-5-3-5-3-5~~----------/----------|
D|-10-13-10-----------------------------8-7-5----/-----------|
A|-------------------------------------------8-8/------------|
E|-----------------------------------------------------------|
                                                             |
                                                             |
E|-----------------------------------------------------------|
B|-----------------------------------------------------------|
G|-----------------------------------------------------------|
D|--8-5------8------7-----------3-5--------------------------|
A|--6-3------6------5-----------1-3--------------------------|
E|-----------------------------------------------------------|


                  1

E|-22~~~~~~~~--18/\(18)--18------16------18----------|
B|-------------------------18-16---16 15---16-15~~~--|
G|---------------------------------------------------|
D|---------------------------------------------------|
A|---------------------------------------------------|
E|---------------------------------------------------|



E|---------------------------------------------------|
B|---------------------------------------------------|
G|---------------------------------------------------|
D|-8-5------------3-5---------------------------8-5--|
A|-6-3------------1-3---------------------------6-3--|
E|---------------------------------------------------|


                                          2

E|--------18p16p15------------------/\-----------------------|
B|----------------18-18p16p15-13-13/---13p11-13-13~~~\\\\\\--|
G|-----------------------------------------------------------|
D|-----------------------------------------------------------|
A|-----------------------------------------------------------|
E|-----------------------------------------------------------|



E|-----------------------------------------------------------|
B|-----------------------------------------------------------|
G|-----------------------------------------------------------|
D|-8------7------3-5---------------------------8-5-----------|
A|-6------5------1-3---------------------------6-3-----------|
E|-----------------------------------------------------------|



E|-----------------------------------------------------------/\-----|
B|----------------------------------------------------------/--\----|
G|---------------------------------------------------------/--------|
D|--17-18-17----20-18-17-18-------------------------------/---------|
A|-----------18------------18-17-----17-17-18-18-20-20-20/----------|
E|-------------------------------20---------------------------------|



E|------------------------------------------------------------------|
B|------------------------------------------------------------------|
G|------------------------------------------------------------------|
D|-5-5---------------------------8-5-------------------8--------7---|
A|-3-3---------------------------6-3-------------------6--------5---|
E|------------------------------------------------------------------|



E|------------------------------------------------------------|
B|------------------------------------------------------------|
G|-12-13-13p12p10-12-13p12p10----10-12-13-13p12p10-10---10----|
D|----------------------------13----------------------13------|
A|------------------------------------------------------------|
E|------------------------------------------------------------|



E|------------------------------------------------------------|
B|------------------------------------------------------------|
G|------------------------------------------------------------|
D|------------------------------------------------------------|
A|---6--------------6--------------6--------------6-----------|
E|---4----4----4----4----4----4----4----4----4----4----4----4-|



E|----------------------------------------------------|
B|----------------------------------------------------|
G|-12-13-13p12p10-12-10----10-------------------------|
D|----------------------------13----13p12p10-10~~~~---|
A|----------------------------------------------------|
E|----------------------------------------------------|



E|----------------------------------------------------|
B|----------------------------------------------------|
G|----------------------------------------------------|
D|-3--------------3--------------3--------------3-----|
A|-1----1----1----1----1----1----1----1----1----1-----|
E|----------------------------------------------------|



E|---------------------------------------------------11--10------------|
B|-----------------------------------------------------------13--11----|
G|-12-13-13p12p10-12-10---10-12-13-13p12p10-12-13-13-------------------|
D|---------------------13----------------------------------------------|
A|---------------------------------------------------------------------|
E|---------------------------------------------------------------------|



E|---------------------------------------------------------------------|
B|---------------------------------------------------------------------|
G|---------------------------------------------------------------------|
D|-----------------------------------------------3-----------3---------|
A|-6-----------6-----------6-----------6---------1---1---1---1---1---1-|
E|-4---4---4---4---4---4---4---4---4---4---4---4-----------------------|



E|-------------------------------------------------------------------------|
B|-16p15p13----------------------------------------------------------------|
G|---------15-15p13p12---13p12p10----------------10-10~-12-12-12~-15-15-15~|
D|--------------------15---------13-12-12~-13-13~--------------------------|
A|-------------------------------------------------------------------------|
E|-------------------------------------------------------------------------|



E|-------------------------------------------------------------------------|
B|-------------------------------------------------------------------------|
G|-------------------------------------------------------------------------|
D|----8------------7----------------3-----------3-----------3-----------3--|
A|----6------------5----------------1---1---1---1---1---1---1---1---1---1--|
E|-------------------------------------------------------------------------|


                          1/4

E|------------------------/\------------------------|
B|-----------------------/--------------------------|
G|-13-13-13-12-10-----12/---------------------------|
D|-----------------13----13-12~~~~~~~~--------------|
A|--------------------------------------------------|
E|--------------------------------------------------|



E|--------------------------------------------------|
B|--------------------------------------------------|
G|-------------------------------5---------3--------|
D|-----6~~~------5~~~------------3---------1--------|
A|--------------------------------------------------|
E|--------------------------------------------------|


(Versos)

Pre Refrao 3:

E|---------4------4--------------------4-----4-----------------------------|
B|-----------4------4--------------------4-----4---------------------------|
G|------5------5----------3----------5-----5-----------3------3---5--------|
D|--6---------------------3-------6--------------------3------3---5--------|
A|--6---------------------1-------6--------------------1------1---3--------|
E|--4-----------------------------4----------------------------------------|


Refrão 3:

E|-----------------------------|---------------------------|
B|-----------------------------|---------------------------|
G|-----------------------------|---------------------------|
D|-----5-------5-------5-7-8---|-5-------5-------8----3----|
A|-----3---3-3-3---3-3-3-5-6---|-3---3-3-3---3-3-6----1----|
E|-----------------------------|---------------------------|



E|-----------------------------|---------------------------|
B|-----------------------------|---------------------------|
G|-----------------------------|---------------------------|
D|-----5-------5-------5-7-8---|-5-------5-------8----7----|
A|-----3---3-3-3---3-3-3-5-6---|-3---3-3-3---3-3-6----5----|
E|-----------------------------|---------------------------|

Texto Colunas
Alterar tom ½ tom ½ tom
afinação acordes na letra esconder tabs mais »

Comentários (21)

  • guitarhero guitarhero: Postado em 21/03/2014 16:20

    pessoal usem o guitar pro. nem sempre devemos confiar nessas tabs ou acordes. abbraços.

  • Matheus Matheus: Postado em 03/02/2014 19:44

    soundcloud. com/matheus-albuquerque-13/holy-diver

  • angelmikael angelmikael: Postado em 20/05/2013 22:11

    Galera... Eu corrigir as notas desta música...E tbm deixei bem organizado! Provavelmente estará aqui pra vc's se eles me aprovarem! Logo,lgo

  • angelmikael angelmikael: Postado em 20/05/2013 22:06

    Galera... Eu corrigir as notas desta música...E tbm deixei bem organizado! Provavelmente estará posto aqui pra vc's se eles me aprovarem!

  • angelmikael angelmikael: Postado em 20/05/2013 22:02

    Galera... Eu corrigir as notas desta música...E tbm deixei bem organizado! Provavelmente estará posto aqui pra vc's se eles me aprovarem! õ/

  • cadudutra_ cadudutra_: Postado em 12/02/2013 13:28

    Para de reclamar da tab porra se não gostou faz melhor u.u pelo menos alguém tentou por alguma coisa ai e vc que fica reclamando fez o que ?

  • vinyhendrix vinyhendrix: Postado em 02/01/2013 19:55

    façam outra tab na boa ta quse certo mas isso ta resumido, falta coisa e solo nem ta certo , se for pra faser algo ruim n faz _|_

  • renandl renandl: Postado em 23/11/2012 21:05

    Que confusão, onde ta o solo aí?

  • giansuicide giansuicide: Postado em 07/07/2012 21:47

    desafio aceito! só vou descansar quando pega-la.

    • jiyunio jiyunio: Postado em 08/02/2013 21:32

      Se depender dessa tab, tu não vai completar o desafio.

Exibindo 10 de 21 comentários Mostrar mais ver todos »
Composição: Gerardo Ram / R. Breen
Esse não é o compositor? Avise-nos.
Contribuição: Messias Correções: pepelt e mais 2 »
  1. Tudo Que Você Quiser - Luan Santana Manteve-se 5.838 exibições
  2. Lepo Lepo - Psirico Manteve-se 4.258 exibições
  3. Mozão - Lucas Lucco Manteve-se 4.092 exibições
  4. Logo Eu - Jorge e Mateus Manteve-se 3.677 exibições
  5. Gaveta - Fernando e Sorocaba Manteve-se 3.251 exibições
  6. Só Os Loucos Sabem - Charlie Brown Jr. Manteve-se 2.945 exibições
  7. Pra Você - Onze:20 Manteve-se 2.783 exibições
  8. Tempo Perdido - Legião Urbana Manteve-se 2.356 exibições
  9. Fui Fiel - Gusttavo Lima Manteve-se 2.236 exibições
  10. Na Linha do Tempo - Victor e Leo Manteve-se 2.111 exibições
  1. Jorge e Mateus- Manteve-se 22.167 exibições
  2. Legião Urbana- Manteve-se 19.327 exibições
  3. Luan Santana- Manteve-se 17.248 exibições
  4. Charlie Brown Jr.- Manteve-se 16.750 exibições
  5. Fernandinho- Manteve-se 14.218 exibições
  6. Thalles Roberto- Manteve-se 10.904 exibições
  7. Católicas- Manteve-se 10.314 exibições
  8. Aline Barros- Manteve-se 10.062 exibições
  9. Victor e Leo- Manteve-se 10.039 exibições
  10. Gusttavo Lima- Manteve-se 9.893 exibições
Exibir acordes »

Cifras e tabs

Fórum Cifra Club

Aprenda

Cifra Club News

Mais Serviços Cifra Club ID

Studio Sol

©1996 - 2014 Cifra Club · o primeiro, maior e mais acessado do Brasil · 329 mil músicas · 5.9 milhões pessoas cadastradas

publicidade
fechar