Estudio In C

Dionisio Aguado

Sem foto do Dionisio Aguado
Tom: F
		
    q     q     q     q     q     q     q     q     q     q     q     q

E|-----------|-----------|-----------|-----------|--0-----0--|-----------|
B|--1-----1--|--0-----0--|--3-----3--|--1-----1--|--1-----1--|--3-----3--|
G|*-0-----0--|--0-----0--|-----------|-----------|--2-----2--|--2-----2--|
D|*-2-----2--|--0-----0--|--3-----3--|--2-----2--|-----------|--3--------|
A|-----------|-----------|--2-----2--|--3-----3--|-----------|-----------|
E|-----------|-----------|-----------|-----------|-----------|--------1--|


    q     q     q.  (8th rest)      (simile)

E|-----------|-------------------||-----------|-----------|--2-----2--|
B|--0-----0--|--1.---------------||--5-----5--|--3-----3--|--1-----1--|
G|--0--------|------------------*||*-0-----0--|--0-----0--|-----------|
D|--------3--|--2.--------------*||*----------|-----------|--------0--|
A|-----------|--3.---------------||--3-----3--|--2-----2--|--0--------|
E|--3-----3--|-------------------||-----------|-----------|-----------|


                                                    q.    (8th rest)

E|--3-----3--|--1-----1--|--0-----0--|-----------|-------------------||
B|--0-----0--|--0-----0--|--1-----1--|--3-----0--|--1.---------------||
G|--------0--|--1-----1--|--2--------|--2-----0--|------------------*||
D|-----------|-----------|--------2--|--3--------|--2.--------------*||
A|-----------|-----------|-----------|-----------|--3.---------------||
E|--3--------|-----------|-----------|--------3--|-------------------||

                                                    (end of 1st part)

 (start of 2nd part)
    e  e  e  e  e  e  e  e     e  e  e  e  e  e  e  e

E|--------------------------|--------------------------|
B|-----1-----1-----1-----1--|-----0-----0-----0-----0--|
 G|*-------0-----------0-----|--------0-----------0-----|
 D|*-------------2==========>|--0==========>0==========>|
A|--3==========>------------|--------------------------|
E|--------------------------|--------------------------|


   (simile)

E|--------------------------|--------------------------|
B|-----3-----3-----3-----3--|-----1-----1-----1-----1--|
G|--------0-----------0-----|--------0-----------0-----|
D|--------------------------|--------------------------|
A|--2==========>------------|--3-----------3-----------|
E|--------------3==========>|--------------------------|



E|-----0-----0-----0-----0--|--------------------------|
B|--------1-----------1-----|-----3-----3-----3-----3--|
G|--2-----------2-----------|--------2-----------2-----|
D|--------------------------|--3-----------------------|
A|--------------------------|--------------------------|
E|--------------------------|--------------1-----------|


                                           q (4th rest)

E|--------------------------|-------------------------||
B|-----0-----0-----0-----0--|-----1-----1-------------||
G|--------0-----------------|------------------------*||
D|--------------------3-----|--------2---------------*||
A|--------------------------|--3-----------3----------||
E|--3-----------3-----------|-------------------------||



E|--------------------------|--------------------------|
B|-----5-----5-----5-----5--|-----3-----3-----3-----3--|
 G|*-------0-----------0-----|--------0-----------0-----|
 D|*-------------------------|--------------------------|
A|--3-----------3-----------|--2-----------2-----------|
E|--------------------------|--------------------------|



E|-----2-----2-----2-----2--|-----3-----3-----3-----3--|
B|--------1-----------1-----|--------0-----------0-----|
G|--------------------------|--------------0-----------|
D|--------------0-----------|--------------------------|
A|--0-----------------------|--------------------------|
E|--------------------------|--3-----------------------|




E|-----1-----1-----1-----1--|-----0-----0-----0-----0--|
B|--------0-----------0-----|--------1-----------1-----|
G|--1-----------1-----------|--2-----------------------|
D|--------------------------|--------------2-----------|
A|--------------------------|--------------------------|
E|--------------------------|--------------------------|


                                           q (4th rest)

E|--------------------------|-------------------------||
B|-----3-----3-----0-----0--|-----1-------------------||
G|--------2-----------0-----|-----------0------------*||
D|--3-----------------------|--------2---------------*||
A|--------------------------|--3-----------3----------||
E|--------------3-----------|-------------------------||
257 exibições

Comentários 0

Consegui tocarAinda não conseguiram tocar essa música. Seja o primeiro!
    Não consegui tocar
    Exibir acordes »
    publicidade
    fechar