So far away

Dire Straits

 Dire Straits
Tom: E
		

 Intro: G  A  G  D
E|-----------------------------------------------------------------|
B|-----------------------------------------------------------------|
G|-----------------------------------------------------------------|
D|-------------------------------------------11-----11-----11------|
A|-----9------9------9----7------7------7---/9-9-9--9--9-9-9-------|
E|-5---7-7-7--7-7-7--7-7--5-5-5--5-5-5--5-5------------------------|



E|-------------------------||-7p4----7p4----|                     E|--------------|
B|-2/9---9-10--7--9--5--5--||------5------5-|                     B|--------------|
G|-2/9---9-9---8--9--6--4--||---------------|   (2x) com variaçao G|--------------|
D|-2/9---9-11--9--9--7--6--||---------------|          no final   D|--6p4-4-6~----|
A|-------------------------||---------------|                     A|--------------|
E|-------------------------||---------------|                     E|--------------|


E                        B
 here i am again in this mean old town
                   E
 and you're so far away from me
                            B
 and where are you when the sun goes down
               E
 you're so far away from me

Refrão:

E|--------------------------------------------------------------------|
B|-2/9-9--5--------4---------2/9--9--5-------4-----5------------------|
G|-2/9-9--6-----------4---1--2/9--9--6---------4---6------------------|
D|-2/9-9--7------6----4---2--2/9--9--7-----6---4---7---2-2-x-2-2-2----|
A|------------4-------2---2-------------4------2-------2-2-x-2-2-2----|
E|------------------------0----------------------------0-0-x-0-0-0----|

A         C#9          B
 so far away from me
          E
 so far i just can see
A         C#9
 so far away from me
 B          A        E
 you're so far from me

E|------------------------||--7p4---7p4----|                     E|--------------|
B|-2/9---9-10--7--9--5--5-||------5-----5--|                     B|--------------|
G|-2/9---9-9---8--9--6--4-||---------------|   (2x) com variaçao G|--------------|
D|-2/9---9-11--9--9--7--6-||---------------|          no final   D|--6p4-4-6~----|
A|------------------------||---------------|                     A|--------------|
E|------------------------||---------------|                     E|--------------|



( E B E )

E                               B
 i'm tired of being in love and being all alone
                    E
 when you're so far away from me
                                B
 i'm tired of making out on the telephone
                    E
 and you're so far away from me

(Refrão) repete o refrao



E                       B
 i get so tired when i have to explain
                    E
 when you're so far away from me
                                 B
 see you're been in the sun i've been in the rain
                E
 you're so far away from me

(Refrão)
Texto Colunas
Alterar tom ½ tom ½ tom
afinação acordes na letra esconder tabs mais »
166.055 exibições

Comentários (5)

  • andreo.naymayer andreo.naymayer: Postado em 15/11/2013 20:55

    quero video aula... a musica é ôtima

  • gustavo.bento.33 gustavo.bento.33: Postado em 15/07/2013 22:48

    Musica fácil e Perfeita!!!

  • jrfreire jrfreire: Postado em 22/08/2011 14:10

    Muito Linda e Muito fácil

  • tunner tunner: Postado em 03/08/2011 19:37

    Posta por favor a vídeo aula dessa música.

  • digo digo: Postado em 21/06/2011 17:10

    posta uma video aula ai pra nois dessa musica mt boa ela

Composição: Cheryl Parker / Johan Persson / Mark Knopfler
Esse não é o compositor? Avise-nos.
Contribuição: Flávio Correções: Thiago , lucas_punk e mais 8 »
  1. Tudo Que Você Quiser - Luan Santana Manteve-se 5.838 exibições
  2. Lepo Lepo - Psirico Manteve-se 4.258 exibições
  3. Mozão - Lucas Lucco Manteve-se 4.092 exibições
  4. Logo Eu - Jorge e Mateus Manteve-se 3.677 exibições
  5. Gaveta - Fernando e Sorocaba Manteve-se 3.251 exibições
  6. Só Os Loucos Sabem - Charlie Brown Jr. Manteve-se 2.945 exibições
  7. Pra Você - Onze:20 Manteve-se 2.783 exibições
  8. Tempo Perdido - Legião Urbana Manteve-se 2.356 exibições
  9. Fui Fiel - Gusttavo Lima Manteve-se 2.236 exibições
  10. Na Linha do Tempo - Victor e Leo Manteve-se 2.111 exibições
  1. Jorge e Mateus- Manteve-se 22.167 exibições
  2. Legião Urbana- Manteve-se 19.327 exibições
  3. Luan Santana- Manteve-se 17.248 exibições
  4. Charlie Brown Jr.- Manteve-se 16.750 exibições
  5. Fernandinho- Manteve-se 14.218 exibições
  6. Thalles Roberto- Manteve-se 10.904 exibições
  7. Católicas- Manteve-se 10.314 exibições
  8. Aline Barros- Manteve-se 10.062 exibições
  9. Victor e Leo- Manteve-se 10.039 exibições
  10. Gusttavo Lima- Manteve-se 9.893 exibições
Exibir acordes »

Cifras e tabs

Fórum Cifra Club

Aprenda

Cifra Club News

Mais Serviços Cifra Club ID

Studio Sol

©1996 - 2014 Cifra Club · o primeiro, maior e mais acessado do Brasil · 329 mil músicas · 5.9 milhões pessoas cadastradas

publicidade
fechar