So far away

Dire Straits

 Dire Straits
Tom: E
		

  Intro: B                 A                 E
E|-----------------------------------------------------------------|
B|-----------------------------------------------------------------|
G|-----------------------------------------------------------------|
D|-------------------------------------------11-----11-----11------|
A|-----9------9------9----7------7------7---/9-9-9--9--9-9-9-------|
E|-5---7-7-7--7-7-7--7-7--5-5-5--5-5-5--5-5------------------------|




                B       A    E
E|-----------------------------|     |-7p4----7p4----|               E|--------------|
B|-2/9---9-10--7~~--9--5~~--5--|     |------5------5-|               B|--------------|
G|-2/9---9-9---8~~--8--6~~--4--|(2x) |---------------|  com variação G|--------------|
D|-2/9---9-11--9~~--9--7~~--6--|     |---------------|    no final   D|--6p4-4-6~----|
A|-----------------------------|     |---------------|               A|--------------|
E|-----------------------------|     |---------------|               E|--------------|


E                        B
 here i am again in this mean old town
                   E
 and you're so far away from me  
                            B
 and where are you when the sun goes down
               E
 you're so far away from me

Refrão:


E|--------------------------------------------------------------------|
B|-2/9-9--5--------4---------2/9--9--5-------4-----5------------------|
G|-2/9-9--6-----------4------2/9--9--6---------4---6------------------|
D|-2/9-9--7------6----4------2/9--9--7-----6---4---7---2-2-x-2-2-2----|
A|------------4-------2---2-------------4------2-------2-2-x-2-2-2----|
E|------------------------0----------------------------0-0-x-0-0-0----|


A         C#9          B
 so far away from me
          E
 so far i just can see
A         C#9
 so far away from me
 B          A        E
 you're so far from me


               B       A    E
E|------------------------------|     |-7p4----7p4----|               E|--------------|
B|-2/9--9-10--7~~--9--5~~--5~~--|     |------5------5-|               B|--------------|
G|-2/9--9-9---8~~--8--6~~--4~~--|(2x) |---------------|  com variação G|--------------|
D|-2/9--9-11--9~~--9--7~~--6~~--|     |---------------|    no final   D|--6p4-4-6~----|
A|------------------------------|     |---------------|               A|--------------|
E|------------------------------|     |---------------|               E|--------------|


E                               B
 i'm tired of being in love and being all alone
                    E
 when you're so far away from me
                                B
 i'm tired of making out on the telephone
                    E
 and you're so far away from me

(Refrão) repete o refrao

E                       B
 i get so tired when i have to explain
                    E
 when you're so far away from me
                                 B
 see you're been in the sun i've been in the rain
                E
 you're so far away from me

(Refrão)
173.582 exibições

Comentários 5

  • andreo.naymayer andreo.naymayer: Postado em 15/11/2013 20:55

    quero video aula... a musica é ôtima

  • gustavo.bento.33 gustavo.bento.33: Postado em 15/07/2013 22:48

    Musica fácil e Perfeita!!!

  • jrfreire jrfreire: Postado em 22/08/2011 14:10

    Muito Linda e Muito fácil

  • tunner tunner: Postado em 03/08/2011 19:37

    Posta por favor a vídeo aula dessa música.

  • digo digo: Postado em 21/06/2011 17:10

    posta uma video aula ai pra nois dessa musica mt boa ela

Composição: Cheryl Parker / Johan Persson / Mark Knopfler
Esse não é o compositor? Avise-nos.
Contribuição: Flávio Correções: Thiago , rockboy e mais 9 »
Exibir acordes »
publicidade
fechar