Dire Straits

Sultans of Swing

72.950 exibições
Introdução

G|--------------------------------------------|
D|--------------------------------------------|
A|-5--5-5--5----3---3--5--5-5--5--5-5-----5---|
E|------------5---5-------------------5h7-----|

G|--------------------------------------------|
D|--------------------------------------------|
A|-5-5--5----3---3--5--5-5--5--5-3---3--------|
E|---------5---5-------------------5----------|

Primeira parte

You get a shiver in the dark...

parte 01

G|--------------------------------------------|
D|--------------------------------------------|
A|-5--5-5--3-1--------------------------------|
E|--------------5--5-5--5--5-5----------------|

G|--------------------------------------------|
D|--------------------------------------------|
A|---5--5-5--3-1------------------------------|
E|-5-------------5--5-5--5--5-5---5-----------|

Parte 02

G|--------------------------------------------|
D|-3--3-----3--3------------------------------|
A|------3h5------5---3--3-----3-3-------------|
E|-----------------3------3h5-----3h5---------|

G|--------------------------------------------|
D|--------------------------------------------|
A|-1-1-----1-1-----5-5-----5--1-1--1-3--------|
E|-----1h3-----1h3-----3h5--------------------|

G|--------------------------------------------|
D|--------------------------------------------|
A|-3-3--3--3-3--------------------------------|
E|--------------5h7---------------------------|

Parte 03

G|--------------------------------------------|
D|--------------------------------------------|
A|-5--5-5--3-1--------------------------------|
E|--------------5--5-5--5--5-5----------------|

G|--------------------------------------------|
D|--------------------------------------------|
A|---5--5-5--3-1------------------------------|
E|-5-------------5--5-5--5--5-5---5-----------|

Parte 04

G|--------------------------------------------|
D|-3--3---------------------------------------|
A|------3h5-------3-3-----3-3-----------------|
E|----------1--1------3h5-----3h5-------------|

G|--------------------------------------------|
D|--------------------------------------------|
A|-1-1-----1-1-----5-5-----5--1-1--1-3--------|
E|-----1h3-----1h3-----3h5--------------------|

G|--------------------------------------------|
D|--------------------------------------------|
A|-3-3--3--1-1--1-3--3-3--3--3-3--------------|
E|-------------------------------3h5----------|

Refrão 

London town...

Parte 01 ( Tocar 2x )

G|--------------------------------------------|
D|--------------------------------------------|
A|-5--5-3--1--1-----1--3-3-----3-3------------|
E|--------------1h3--------3h5-----3h5--------|

Segunda parte 

You check out guitar, George...

parte 01

G|--------------------------------------------|
D|--------------------------------------------|
A|-5--5-5--3-1--------------------------------|
E|--------------5--5-5--5--5-5----------------|

G|--------------------------------------------|
D|--------------------------------------------|
A|---5--5-5--3-1------------------------------|
E|-5-------------5--5-5--5--5-5---5-----------|

Parte 02

G|--------------------------------------------|
D|-3--3---------------------------------------|
A|------3h5----------3--3-----3-3-------------|
E|----------1--1--1-------3h5-----3h5---------|

G|--------------------------------------------|
D|--------------------------------------------|
A|-1-1-----1-1-----5-5-----5--1-1--1-3--------|
E|-----1h3-----1h3-----3h5--------------------|

G|--------------------------------------------|
D|--------------------------------------------|
A|-3-3--3--3-3--------------------------------|
E|--------------5h7---------------------------|

Parte 03

G|--------------------------------------------|
D|--------------------------------------------|
A|-5--5-5--3-1--------------------------------|
E|--------------5--5-5--5--5-5----------------|

G|--------------------------------------------|
D|--------------------------------------------|
A|---5--5-5--3-1------------------------------|
E|-5-------------5--5-5--5--5-5---5-----------|

Parte 04

G|--------------------------------------------|
D|-3--3---------------------------------------|
A|------3h5-------3-3-----3-3-----------------|
E|----------1--1------3h5-----3h5-------------|

G|--------------------------------------------|
D|--------------------------------------------|
A|-1-1-----1-1-----5-5-----5--1-1--1-3--------|
E|-----1h3-----1h3-----3h5--------------------|

G|--------------------------------------------|
D|--------------------------------------------|
A|-3-3--3--1-1--1-3--3-3--3--3-3--------------|
E|-------------------------------3h5----------|

Refrão 2

London town...

Parte 01 ( Tocar 2x )

G|--------------------------------------------|
D|--------------------------------------------|
A|-5--5-3--1--1-----1--3-3-----3-3------------|
E|--------------1h3--------3h5-----3h5--------|

Terceira parte

And a crowd of young boys, they're fooling...

parte 01

G|--------------------------------------------|
D|--------------------------------------------|
A|-5--5-5--3-1--------------------------------|
E|--------------5--5-5--5--5-5----------------|

G|--------------------------------------------|
D|--------------------------------------------|
A|---5--5-5--3-1------------------------------|
E|-5-------------5--5-5--5--5-5---5-----------|

Parte 02

G|--------------------------------------------|
D|-3--3---------------------------------------|
A|------3h5----------3--3-----3-3-------------|
E|----------1--1--1-------3h5-----3h5---------|

G|--------------------------------------------|
D|--------------------------------------------|
A|-1-1-----1-1-----5-5-----5--1-1--1-3--------|
E|-----1h3-----1h3-----3h5--------------------|

G|--------------------------------------------|
D|--------------------------------------------|
A|-3-3--3--1-1--1-3--3-3--3--3-3--------------|
E|-------------------------------3h5----------|

Refrão 3

London town...

Parte 01 ( Tocar 2x )

G|--------------------------------------------|
D|--------------------------------------------|
A|-5--5-3--1--1-----1--3-3-----3-3------------|
E|--------------1h3--------3h5-----3h5--------|

Solo de Guitarra

parte 01

G|--------------------------------------------|
D|--------------------------------------------|
A|-5--5-5--3-1--------------------------------|
E|--------------5--5-5--5--5-5----------------|

G|--------------------------------------------|
D|--------------------------------------------|
A|---5--5-5--3-1------------------------------|
E|-5-------------5--5-5--5--5-5---5-----------|

Parte 02

G|--------------------------------------------|
D|-3--3---------------------------------------|
A|------3h5----------3--3-----3-3-------------|
E|----------1--1--1-------3h5-----3h5---------|

G|--------------------------------------------|
D|--------------------------------------------|
A|-1-1-----1-1-----5-5-----5--1-1--1-3--------|
E|-----1h3-----1h3-----3h5--------------------|

G|--------------------------------------------|
D|--------------------------------------------|
A|-3-3--3--1-1--1-3--3-3--3--3-3--------------|
E|-------------------------------3h5----------|

Refrão 4

London town...

Parte 01 ( Tocar 2x )

G|--------------------------------------------|
D|--------------------------------------------|
A|-5--5-3--1--1-----1--3-3-----3-3------------|
E|--------------1h3--------3h5-----3h5--------|

Quarta parte

And then the man, he steps right up to...

parte 01

G|--------------------------------------------|
D|--------------------------------------------|
A|-5--5-5--3-1--------------------------------|
E|--------------5--5-5--5--5-5----------------|

G|--------------------------------------------|
D|--------------------------------------------|
A|---5--5-5--3-1------------------------------|
E|-5-------------5--5-5--5--5-5---5-----------|

Parte 02

G|--------------------------------------------|
D|-3--3-----3--3--3---------------------------|
A|------3h5----------3--3-----3-3-------------|
E|------------------------3h5-----3h5---------|

G|--------------------------------------------|
D|--------------------------------------------|
A|-1-1-----1-1-----5-5-----5--1-1--1-3--------|
E|-----1h3-----1h3-----3h5--------------------|

G|--------------------------------------------|
D|--------------------------------------------|
A|-3-3--3--1-1--1-3--3-3--3--3-3--------------|
E|-------------------------------3h5----------|

Refrão 5

London town...

Parte 01 ( Tocar 2x )

G|--------------------------------------------|
D|--------------------------------------------|
A|-5--5-3--1--1-----1--3-3-----3-3------------|
E|--------------1h3--------3h5-----3h5--------|

Solo de Guitarra Final 

parte 01

G|--------------------------------------------|
D|--------------------------------------------|
A|-5--5-5--1--1-----3-3------3-3--------------|
E|--------------1h3------1h3-----3h5----------|

Parte 02 ( tocar 2x )

G|--------------------------------------------|
D|--------------------------------------------|
A|-5--5-3--1--1-----1--3-3-----3-3------------|
E|--------------1h3--------3h5-----3h5--------|

Parte 02 ( tocar 3x + Fade Out )

G|--------------------------------------------|
D|------7-5-----------------------------------|
A|-5--5-----7--1-1-----1--3-3-----3-3---------|
E|-----------------1h3--------3h5-----3h5-----|
    Composição: Mark KnopflerColaboração e revisão:
    • Reginaldo
    • VictorNha

    Comentários 1

    140 .
    • thiago9o thiago9o: Em 23/12/2015 12:11

      velho que que custa botar a musica original no fundo ?? isso ficou parecendo um arrocha velho namoral

    140 cancelar
    0:00 / 0:00
    3 versões de baixo exibições contribuição e correção
    1 versão de bateria exibições contribuição e correção
    1 versão de gaita exibições contribuição e correção
    1 versão de partiturasformatodownloadscontribuição
    play/pausefechar subir/descer velocidade
    6ª corda E5ª corda A4ª corda D3ª corda G2ª corda B1ª corda E
      acordes
      versão revisada Reginaldo instrutor de baixo
      publicidad
      fechar
      ok