Sultans of Swing

Dire Straits

 Dire Straits
Introdução
g|-------------|---------------|
d|-------------|---------------|
a|-5---5-5---5-|-5---5-3-0-3-0-|  x4
e|-------------|---------------|

Verso
g|--------------|-------------|-------------|--------------|
d|*-------------|-------------|-------------|-------------*|
a|*-5---5-5---5-|-3---3-1---1-|-0---0-0---0-|-0---0-0---0-*|  x2
e|--------------|-------------|-------------|--------------|

g|---------------|---------------|-------------|-------------|
d|-3---3---------|-3---3---------|-------------|-------------|
a|---------1-3-1-|---------1-3-1-|-3---3-3---1-|-3---3-3-3-2-|
e|---------------|---------------|---------3---|-------------|

g|-------------|-------------|-------------|-------------|
d|-------------|-------------|-------------|-------------| 
a|-1-----1---1-|-1---0-1---1-|-5---5-----5-|-1-1-1-3---3-|
e|-----1-------|-------------|-------0-5---|-------------|

g|-------------|-------------|-------------|
d|-------------|-------------|-------------|
a|-3---3-3---3-|-1-1-1-3---3-|-3---3-3---3-|
e|-------------|-------------|-------------|

Chorus:
g|-------------|-------------|-----------|-------------|
d|-------------|-------------|-----------|-------------|
a|-5-5-5-3---1-|---------0-2-|-3-3-----1-|-3---3-3---3-|
e|-------------|-----1-3-----|-------3---|-------------|

2nd Solo:
g|-------------|-------------|-------------|-------------|
d|-------------|-------------|-------------|-------------|
a|-5---5-5---5-|-1---1-1---1-|-3---3-3-----|-3---3-3---3-|
e|-------------|-------------|-----------3-|-------------|

Chorus Variation:
g|-------2-------|-------------|-------------|-------------|
d|---------5-2---|-------------|-------------|-------------|
a|-5---5-------1-|-1---1-1---1-|-3---3-3-----|-3---0-3---3-|
e|---------------|-------------|-----------3-|-------------|

Orden
Intro(x4)
Verse(x2)
Chorus(x2)
Verse(x2)
Chorus(x2)
Verse(x1-2nd time ending)
Chorus(x2)
Verse(1st solo)(x1-2nd time ending)
Chorus(x2)
Verse(x1)
Chorus(x2)
2nd Solo(x1)
Chorus(x2)
Chorus Variations(x3)

Comentários 0

Composição: Cheryl Parker / Johan Persson / Mark Knopfler
Esse não é o compositor? Avise-nos.
Contribuição: VictorNha
publicidade
fechar