Young And Reckless

Discipline

Sem foto do Discipline
Tom: G
		
tabs by: benny f.


Intro:


e|-0-0-0-0-0-0-0-0-3-3-3-3-3-3-3-3-5-5-5-5-5-5-5-5-7-7-7-7-7-7-7-7-|  x2
B|-----------------------------------------------------------------|
G|-----------------------------------------------------------------|
D|-----------------------------------------------------------------|
A|-----------------------------------------------------------------|
E|-----------------------------------------------------------------|



Refrain:


e|---------------------------------------------------|
B|---------------------------------------------------|
G|----------------------------5-5-5-5-5-5-4-4-4-4-5-4|
D|-2--2-2-4-4-5-5-5-5-5-5-5-5-5-5-5-5-5-5-4-4-4-4-5-4|
A|-2--2-2-4-4-5-5-5-5-5-5-5-5-3-3-3-3-3-3-2-2-2-2-3-2|
E|-0--0-0-2-2-3-3-3-3-3-3-3-3------------------------|




e|------------------------------------------------------|
B|------------------------------------------------------|
G|----------------------------5-5-5-5-5-5-4--4-4-4-4-4-4|
D|-2--2-2-4-4-5-5-5-5-5-5-5-5-5-5-5-5-5-5-4--4-4-4-4-4-4|
A|-2--2-2-4-4-5-5-5-5-5-5-5-5-3-3-3-3-3-3-2--2-2-2-2-2-2|
E|-0--0-0-2-2-3-3-3-3-3-3-3-3---------------------------|  Refrain 2x



Chorus:


e|----------------------------------------------------------------------------------------------|
B|----------------------------------------------------------------------------------------------|
G|--------------------------------4--4-4-4-4-4-4-4-4-4-4-4-4-4-4--------------------------------|
D|-2--2-2-2-2-2-2-2-2-2-2-2-2-2-2-4--4-4-4-4-4-4-4-4-4-4-4-4-4-4-5--5-5-5-5-5-5-5-5-5-5-5-5-5-5-|
A|-2--2-2-2-2-2-2-2-2-2-2-2-2-2-2-2--2-2-2-2-2-2-2-2-2-2-2-2-2-2-5--5-5-5-5-5-5-5-5-5-5-5-5-5-5-|
E|-0--0-0-0-0-0-0-0-0-0-0-0-0-0-0--------------------------------3--3-3-3-3-3-3-3-3-3-3-3-3-3-3-|



e|------------------------------|
B|------------------------------|
G|7--7-7-7-7-7-7-7-7-7-7-7-7-7-7|
D|7--7-7-7-7-7-7-7-7-7-7-7-7-7-7|
A|5--5-5-5-5-5-5-5-5-5-5-5-5-5-5|
E|------------------------------|


  play chorus 2 times

Refrain again (2x) ...

second chorus is a solo:



e|------------------------------------------------------------------------------------------|
B|------------------------------------------------------------------------------------------|
G|-9-9-9-9-9-9-9-9-9-9-9-9-9-9-9-9-5-5-5-5-5-5-5-5-5-5-5-5-5-5-5-4-0-0-0-0-0-0-0-0-0-0-0-0-0|
D|------------------------------------------------------------------------------------------|
A|------------------------------------------------------------------------------------------|
E|------------------------------------------------------------------------------------------|



e|------------------------------------------------------------------------------------------|
B|------------------------------------------------------------------------------------------|
G|--0-0-0-7-7-7-7-7-7-7-7-7-7-7-7-7-7-7-7-9-9-9-9-9-9-9-9-9-9-9-9-9-9-9-9-5-5-5-5-5-5-5-5-5-|
D|------------------------------------------------------------------------------------------|
A|------------------------------------------------------------------------------------------|
E|------------------------------------------------------------------------------------------|






e|-----------------------------------------------------------------------------|
B|-----------------------------------------------------------------------------|
G|5-5-5-5-5-5-4-0-0-0-0-0-0-0-0-0-0-0-0-0-0-0-0-7-7-7-7-7-7-7-7-7-7-7-7s9-9-9-7|
D|-----------------------------------------------------------------------------|
A|-----------------------------------------------------------------------------|
E|-----------------------------------------------------------------------------|


Refrain again (2x) ...

Bridge:


e|-----------------------------|
B|-----------------------------|
G|-4--------7-----------------5|
D|-4--------7--------7--------5|
A|-2--------5--------7--------3|
E|-------------------5---------|

   won..    won..    won..

Refrain 3x...

Chorus solo again

Refrain 4x...
357 exibições

Comentários 0

Composição: Christian Rudder
Esse não é o compositor? Avise-nos.
Consegui tocarAinda não conseguiram tocar essa música. Seja o primeiro!
    Não consegui tocar
    Exibir acordes »
    publicidade
    fechar